Overkill - Nice Day For A Funeral Text Guitar Tab

Learn the song with the online tablature player
Nice Day...For A Funeral
Overkill

Intro
3x  Behind Intro:
D#||------------------------|------------------------||--------------------|
A#||------------------------|------------------------||--------------------|
F#||*-----------------------|-----------------------*||*--10--------10\-9--|
C#||*-----------------------|-----------------------*||*--10--------10\-9--|
G#||---3-3-3\2--2----2------|--3-3-3\2--2----2-------||---8---------8\--7--|
D#||---1-1-1p0--0----0----0-|--1-1-1p0--0----0----0--||--------------------|

                      To Verse:           Verse:
-------------------||-------------------||------------------------|
-------------------||-------------------||------------------------|
--9----9-----9----*||-------------------||*-----------------------|
--9-------9--9----*||-------------------||*-----------------------|
--7----------7-----||------8--7--5------||---3-3-3\2--2----2------|
-------------------||--0-0-6--5--3------||---1-1-1p0--0----0----0-|

                                                                          3x
-----------------------|-----------------------|--------------------------||
-----------------------|-----------------------|--------------------------||
-----------------------|-----------------------|-------------------------*||
-----------------------|-----------------------|-------------------------*||
--3-3-3\2--2----2------|--3-3-3\2--2----2------|--3-3\2--2--2--------1~---||
--1-1-1p0--0----0----0-|--1-1-1p0--0----0----0-|--1-1p0--0--0--2h-3-------||

Bridge
---------------------|-----------------------|---------------------|
---------------------|-----------------------|---------------------|
---------------------|-----------------------|---------------------|
---------------------|-----------------------|---------------------|
------------3----2---|------------3/5---3-2--|------------3----2---|
--0-0-0-0-0-1----0---|--0-0-0-0-0-1/3---1-0--|--0-0-0-0-0-1----0---|

Chorus
---------------------||------------------------------------------------|
---------------------||------------------------------------------------|
---------------------||*-----------------------------------------------|
---------------------||*--5--5----7--8\-------------------8--8--7------|
------------5--4-2~--||---3--3----5--6\-------------------6--6--5--8---|
--0-0-0-0-0-6--5-3~--||-------------------0-0-0--0-0-0--0----------6---|

                                      3x  Interlude
----------------------------------------||-------------------------------|
----------------------------------------||-------------------------------|
---------------------------------------*||*------------------------------|
--5--5----7--8\-----------------6------*||*------------------------------|
--3--3----5--6\-----------------4-------||---3-----------3----5----6-----|
------------------0-0-0--0-0-0----------||-------------------------------|

---------------------|--------------------------------------------|
---------------------|--------------------------------------------|
---------------------|--------------------------------------------|
---------------------|--------------------------------------------|
----5----------------|--------3----5----6-------5-----------------|
-----------6----6----|---------------------------------6----4-----|

                                                                       3x
--------------------------|--------------------|-----------------------||
--------------------------|--------------------|-----------------------||
--------------------------|--------------------|----------------------*||
--------------------------|--------------------|----------------------*||
------3----5----6-------5-|--------------------|-----------6----5------||
--------------------------|-------6----3/------|----6--------------6---||

Outro Interlude
-------------------------|------------------------|------------------------|
-------------------------|------------------------|------------------------|
*------------------------|------------------------|------------------------|
*------------------------|------------------------|------------------------|
---5----------5----------|--5----------5----------|--5----------5----------|
---3-3-3-3-3--3----------|--3-3-3-3-3--3----------|--3-3-3-3-3--3----------|

Solo Riff
---------------------------||------------------------|------------------------|
---------------------------||------------------------|------------------------|
--------------------------*||------------------------|------------------------|
--------------------------*||------------------------|------------------------|
--5----------5----3----4---||--5----------5---5---5--|--5----------5---5---5--|
--3-3-3-3-3--3----1/---2---||--3-3-3-3-3--3---3---3--|--3-3-3-3-3--3---3---3--|

------------------------|--------------------------||
------------------------|--------------------------||
------------------------|--------------------------||
------------------------|--------------------------||
--5----------5---5---5--|--5----------5----3----4--||
--3-3-3-3-3--3---3---3--|--3-3-3-3-3--3----1/---2--||