Overkill - Overkill Text Guitar Tab

Learn the song with the online tablature player
I got some more of the song tabbed but I'm just correcting it and i got one more fill to do.

Here are the main parts.

|---------------------------------|
|---------------------------------|
|-----6-----7-----6-----7-----4---|
|-4-4---4-4---4-4---4-4---4-4---4-|
|---------------------------------|
|---------------------------------|

|---------------------------------|
|---------------------------------|
|-----4-----5-----4-----5-----2---|
|-2-2---2-2---2-2---2-2---2-2---2-|
|---------------------------------|
|---------------------------------|