Overkill - Theres No Tomorrow Text Guitar Tab

Learn the song with the online tablature player
Overkill : There's no Tomorrow

    play riff1 3 times
E-----------------------------------------------------------------------
B-----------------------------------------------------------------------
G---------------------------7--7--------------------------7--7--7-------
D---------------------------7--7--------------------------5--5--5-------
A---------------------------5--5----------------------------------------
E---0--0--0--0--0--0--0--0--------0--0--0--0--0--0--0--0-----------0----

                                              riff2
E---------------------------------------------|-------------------------
B---------------------------------------------|-------------------------
G------------------------7-----2--4--5--4--2--|--4--5--5--4--4-----5----
D------------------------7--3--2--4--5--4--2--|--2--5--5--4--2-----5----
A------------------------5--3--0--2--3--2--0--|-----3--3--2--------3----
E---0--0--0--0--0--0--0-----1-----------------|-------------------------

          riff3
E------|----------------------------------------------------------------
B------|----------------------------------------------------------------
G---5--|--2--4--------------2--4--------------2--4--------------4--5----
D---5--|--2--4--------------2--4--------------2--4--------------2--5----
A---3--|--0--2--2--2--2--2--0--2--2--2--2--2--0--2--2--2--2--2-----3----
E------|----------------------------------------------------------------

E-----------------------------------------------------------------------
B-----------------------------------------------------------------------
G---4--2--4--------------2--4--------------2--4--------------------2----
D---4--2--4--------------2--4--------------2--4--------------4--5--2----
A---2--0--2--2--2--2--2--0--2--2--2--2--2--0--2--2--2--2--2--4--5--0----
E------------------------------------------------------------2--3-------

E-----------------------------------------------------------------------
B-----------------------------------------------------------------------
G---2--4--------------2--4--------------2--4--------------4--5--4--2----
D---2--4--------------2--4--------------2--4--------------2--5--4--2----
A---0--2--2--2--2--2--0--2--2--2--2--2--0--2--2--2--2--2-----3--2--0----
E-----------------------------------------------------------------------

E---------------------------------------------------------------|-------
B---------------------------------------------------------------|-------
G---4--------------2--4--------------2--4--------------------2--|-------
D---4--------------2--4--------------2--4--------------4--5--2--|-------
A---2--2--2--2--2--0--2--2--2--2--2--0--2--2--2--2--2--4--5--0--|-------
E------------------------------------------------------2--3-----|-------

    play riff 1 2 times then play riff 2
E-----------------------------------------------------------------------
B-----------------------------------------------------------------------
G-----------------------------------------------------------------------
D-----------------------------------------------------------------------
A-----------------------------------------------------------------------
E-----------------------------------------------------------------------

E-----------------------------------------------------------------------
B-----------------------------------------------------------------------
G-----------------------------------------------------------------------
D-----------------------------------------------------------------------
A-----------------------------------------------------------------------
E-----------------------------------------------------------------------

                                                    then play riff3
E-----------------------------------------------------------------------
B-----------------------------------------------------------------------
G-----------------------------------------------------------------------
D-----------------------------------------------------------------------
A-----------------------------------------------------------------------
E-----------------------------------------------------------------------

E-----------------------------------------------------------------------
B-----------------------------------------------------------------------
G-----------------------------------------------------------------------
D-----------------------------------------------------------------------
A-----------------------------------------------------------------------
E-----------------------------------------------------------------------

    then play riff1
E-----------------------------------------------------------------------
B-----------------------------------------------------------------------
G-----------------------------------------------------------------------
D-----------------------------------------------------------------------
A-----------------------------------------------------------------------
E-----------------------------------------------------------------------

             2 times then                  play 6 times
E---------------------------------------|-------------------------------
B---------------------------------------|-------------------------------
G---------------4--5--5--4--4--5--5--4--|-------------------------------
D---------------2--5--5--4--2--5--5--4--|-------------------------------
A------------------3--3--2-----3--3--2--|--------------------------2----
E---------------------------------------|-------------------------------

E-----------------------------------------------------------------------
B---------------------------------------------------0h5-----4-----------
G---4-----------------4--------------4-------------------------4--------
D------4-----------------4--------------4-------------------------------
A------------------2--------------2--------------2----------------------
E-----------------------------------------------------------------------

E------------------------------------------------0----------------------
B---------------------------------------------6-----0-------------------
G------------5-----------5-----------5--------------------------9-------
D---------------5-----------5-----------5-----------------------9-------
A---------3-----------3-----------3--------3--------------------7-------
E-----------------------------------------------------------------------

E------------------------------|----------------------------------------
B------------------------------|----------------------------------------
G------7--------5--------4-----|----------------------------------------
D------7--------5--------4-----|-----------------------0-----2-----3----
A------5--------3--------2-----|--0-----2-----3-----5-------------------
E------------------------------|----------------------------------------

E-----------------------------------------------------------------------
B------------------------------0-----2-----3-----5----------------------
G---------0-----2-----3-----5--------------------------------7-----9----
D------5-----------------------------------------------------7-----9----
A------------------------------------------------------------5-----7----
E-----------------------------------------------------------------------

E-----------------------------------------------------------------------
B-----------------------------------------------------------------------
G------9-----9-----9-----9-----9-----9-----9-----9-----9-----9-----9----
D------9-----9-----9-----9-----9-----9-----9-----9-----9-----9-----9----
A------7-----7-----7-----7-----7-----7-----7-----7-----7-----7-----7----
E-----------------------------------------------------------------------

E-----------------------------------------------------------------------
B-----------------------------------------------------------------------
G-----------------------------------------------------------------------
D---7--9--9--9--9--9--9--9--9--9--9--9--9-----2--4-----4-----4-----4----
A---7--9--9--9--9--9--9--9--9--9--9--9--9-----2--4-----4-----4-----4----
E---5--7--7--7--7--7--7--7--7--7--7--7--7-----0--2-----2-----2-----2----

E-----------------------------------------------------------------------
B-----------------------------------------------------------------------
G-----------------------------------------------------------------------
D------4-----4-----4-----4-----4-----4-----4-----4-----5--7--7--7--7----
A------4-----4-----4-----4-----4-----4-----4-----4-----5--7--7--7--7----
E------2-----2-----2-----2-----2-----2-----2-----2-----3--5--5--5--5----

E-----------------------------------------------------------------------
B-----------------------------------------------------------------------
G-----------------------------------------------------------------------
D---7--7--7--7--7--7--7--7-----5--4--2--2--2--2--2--2--2--2--2--2--2----
A---7--7--7--7--7--7--7--7-----5--4--2--2--2--2--2--2--2--2--2--2--2----
E---5--5--5--5--5--5--5--5-----3--2--0--0--0--0--0--0--0--0--0--0--0----

E-----------------------------------------------------------------------
B-----------------------------------------------------------------------
G-----------------------------------------------------------------------
D---2-----7--9--9--9--9--9--9--9--9--9--9--9--9--2--4-----4-----4-------
A---2-----7--9--9--9--9--9--9--9--9--9--9--9--9--2--4-----4-----4-------
E---0-----5--7--7--7--7--7--7--7--7--7--7--7--7--0--2-----2-----2-------

E-----------------------------------------------------------------------
B-----------------------------------------------------------------------
G-----------------------------------------------------------------------
D---4-----4-----4-----4-----4-----4-----4-----4-----4--7--7--7--7--7----
A---4-----4-----4-----4-----4-----4-----4-----4-----4--7--7--7--7--7----
E---2-----2-----2-----2-----2-----2-----2-----2-----2--5--5--5--5--5----

E-----------------------------------------------------------------------
B-----------------------------------------------------------------------
G---------------------------2--4--5--7--4--7--4--7--9--9--9--9--7--9----
D---7--7--7--7--7--7--7-----2--4--5--7--2--5--2--7--9--9--9--9--7--9----
A---7--7--7--7--7--7--7-----0--2--3--5-----------5--7--7--7--7--5--7----
E---5--5--5--5--5--5--5-------------------------------------------------

E-----------------------------------------------------------------------
B-----------------------------------------------------------------------
G---9--9--9--7--9--9--9--9--7--9--9--9--9-------------------------------
D---9--9--9--7--9--9--9--9--7--9--9--9--9--7--9--9--9--9--9--9--9--9----
A---7--7--7--5--7--7--7--7--5--7--7--7--7--7--9--9--9--9--9--9--9--9----
E------------------------------------------5--7--7--7--7--7--7--7--7----

E-----------------------------------------------------------------------
B-----------------------------------------------------------------------
G-----------------------------------------------------------------------
D---9--9--9--9--5--7--7--7--7--7--7--7--7--7--7--7--7--2--4-----4-------
A---9--9--9--9--5--7--7--7--7--7--7--7--7--7--7--7--7--2--4-----4-------
E---7--7--7--7--3--5--5--5--5--5--5--5--5--5--5--5--5--0--2-----2-------

E-----------------------------------------------------------------------
B-----------------------------------------------------------------------
G-----------------------------------------------------------------------
D---4-----4-----4-----4-----4-----4-----4-----4-----4-----4-----5--7----
A---4-----4-----4-----4-----4-----4-----4-----4-----4-----4-----5--7----
E---2-----2-----2-----2-----2-----2-----2-----2-----2-----2-----3--5----

                                                          play riff2
E-----------------------------------------------------------------------
B-----------------------------------------------------------------------
G-----------------------------------------------------------------------
D---7--7--7--5--7--7--7--7--5--7--7--7--7--5--7--7--7--7----------------
A---7--7--7--5--7--7--7--7--5--7--7--7--7--5--7--7--7--7----------------
E---5--5--5--3--5--5--5--5--3--5--5--5--5--3--5--5--5--5----------------

                                              then riff3
E-----------------------------------------------------------------------
B-----------------------------------------------------------------------
G-----------------------------------------------------------------------
D-----------------------------------------------------------------------
A-----------------------------------------------------------------------
E-----------------------------------------------------------------------

                                     then play riff1 2 times
E-----------------------------------------------------------------------
B-----------------------------------------------------------------------
G-----------------------------------------------------------------------
D-----------------------------------------------------------------------
A-----------------------------------------------------------------------
E-----------------------------------------------------------------------

E-----------------------------------------------------------------------
B-----------------------------------------------------------------------
G-----------------------------------------------------------------------
D-----------------------------------------------------------------------
A-----------------------------------------------------------------------
E-----------------------------------------------------------------------

                            then riff 3
E-----------------------------------------------------------------------
B-----------------------------------------------------------------------
G-----------------------------------------------------------------------
D-----------------------------------------------------------------------
A-----------------------------------------------------------------------
E-----------------------------------------------------------------------

                                     (ending)
E---------------------|-------------------------------------------------
B---------------------|-------------------------------------------------
G---------------------|-----------------------------4-----7-----4-------
D---------------------|-----4--------6--------8-----2-----5-----2-------
A---------------------|-----4--------6--------8-------------------------
E---------------------|-----2--------4--------6-------------------------

E-----------------------------------------------------------------------
B-----------------------------------------------------------------------
G-----------------------------------------------------------------------
D-----------------------------------------------------------------------
A-----------------------------------------------------------------------
E-----------------------------------------------------------------------