Overscene - 912 Text Guitar Tab

Learn song with the online tabulature player
Verse

E-----------------------------------------------------------2----|
B----3-----------------3---------------3-----------------3---3-1-|
G--4--4-------------4h5-54-222222h4--4--4-------------4h5-54-----|
D-2-2--2--55544455-2----------------2-2--2--55544455-2-----------|
A-------3-33333333--------3---------------3-33333333-------------|
E----------------------------------------------------------------|

Chorus

E-------------------------------------|
B-------------------------------------|
G----------55555555----------55555555-|
D-55555555-55555555-22222222-55555555-|
A-55555555-33333333-22222222-33333333-|
E-33333333----------00000000----------|