Owen - A Trenchant Critique Text Guitar Tab

Learn the song with the online tablature player
                             A Trenchant Critique - Owen

You'll be able to work out the struming form listening to the song, I've just given the basic
structure, its still open to interpretation.

e|-----0----------------------0---0--------------------------------------------|
C|-----0----------------------0---0----*5-4-0----------------------------------|
G|-----0----------------------0---0-----0--------------------------------------|
C|-----4----4p2p0----0--------0---0-----0--------------------------------------|
G|-----0----------4----0------0---5-----5--------------------------------------|
C|---0------------------------4-/-5-----5--------------------------------------|
                                                                  *optional bit.

You said that you finally heard the voices in my head
Or at least I think you did
I'm so easily confused, an inebriated fool
who doesn't know his right from...

e|----0----0------------------------------------------------------|
C|----0----0------------------------------------------------------|
G|----0----0------------------------------------------------------|
C|----0----0------------------------------------------------------|
G|----0----0------------------------------------------------------|
C|----7----9------------------------------------------------------|

...left or often right from wrong

e|-----0----------------------0---0--------------------------------------------|
C|-----0----------------------0---0----*5-4-0----------------------------------|
G|-----0----------------------0---0-----0--------------------------------------|
C|-----4----4p2p0----0--------0---0-----0--------------------------------------|
G|-----0----------4----0------0---5-----5--------------------------------------|
C|---0------------------------4-/-5-----5--------------------------------------|
                                                                  *optional bit.

One said and I quote I just read this thing that you wrote in college
A trenchant critique of anthropology being accepted as a social science
And not the art of educated observation

e|----0-----------------------------------------------------------|
C|----0-----------------------------------------------------------|
G|----0-----------------------------------------------------------|
C|----0-----------------------------------------------------------|
G|----0-----------------------------------------------------------|
C|----7-----------------------------------------------------------|

(refrain)

e|----0-----------------------------------------------------------|
C|----0-----------------------------------------------------------|
G|----0-----------------------------------------------------------|
C|----0-----------------------------------------------------------|
G|----10----------------------------------------------------------|
C|----11----------------------------------------------------------|

And all the things that we can

e|----0-------------------------------------------------------------|
C|----0-------------------------------------------------------------|
G|----0-------------------------------------------------------------|
C|----0-------------------------------------------------------------|
G|----9-------------------------------------------------------------|
C|----11------------------------------------------------------------|

learn about ourselves

e|----0-------------------------------------------------------------|
C|----0-------------------------------------------------------------|
G|----0-------------------------------------------------------------|
C|----0-------------------------------------------------------------|
G|----2-------------------------------------------------------------|
C|----2-------------------------------------------------------------|

in the context of someone else

e|-----0----------------------0---0----------------------------------------|
C|-----0----------------------0---0----------------------------------------|
G|-----0----------------------0---0----------------------------------------|
C|-----4----4p2p0----0--------0---0----------------------------------------|
G|-----0----------4----0------0---5----------------------------------------|
C|---0------------------------4-/-5----------------------------------------|

Another vaguely remembers swimming naked with strangers
One summer night on that ill-fated tour
Well those were formative years
Maybe that's why I like to drink my beers warm and I like to take my pants off...

e|------0------0------------------|
C|------0------0------------------|
G|------0------0------------------|
C|------2------0------------------|
G|----0------0h2---2--0-----------|
C|--------------------0-----------|

..And I like a little ink on my girl.

e|----0-----------------------------------------------------------|
C|----0-----------------------------------------------------------|
G|----0-----------------------------------------------------------|
C|----0-----------------------------------------------------------|
G|----10----------------------------------------------------------|
C|----11----------------------------------------------------------|

I always thought i'd

e|----0-------------------------------------------------------------|
C|----0-------------------------------------------------------------|
G|----0-------------------------------------------------------------|
C|----0-------------------------------------------------------------|
G|----9-------------------------------------------------------------|
C|----11------------------------------------------------------------|

end up owning my own

e|----0-----------------------------------------------------------|
C|----0-----------------------------------------------------------|
G|----0-----------------------------------------------------------|
C|----0-----------------------------------------------------------|
G|----2-----------------------------------------------------------|
C|----2-----------------------------------------------------------|

boat before a home.

| /  slide up
| \  slide down
| h  hammer-on
| p  pull-off
| ~  vibrato
| +  harmonic
| x  Mute note