Owen - Bags Of Bones Text Guitar Tab

Learn song with the online tabulature player
Main riff played under everything

E---------------------------------------------------------------------|
C---------------------------------------------------------------------|
G---------------------------------------------------------------------|
C---2----4-----2-------2—0—2—0-------2-----4-----7-------2—0—2—0------|
A---3----3-----3---------------------3-----3-----7--------------------|
F-2----4-----2-----0—2---------2-0—2-----4-----7-----0-2---------2—0--|

Intro lead

E-------------------------------------------------|
C---7—0—2—4----7—0—2—4----7—0—2—4----0—4—2—0------|
G-------------------------------------------------|
C-------------------------------------------------|
A-------------------------------------------------|
F-------------------------------------------------|

Solo

E-------------------------------------------------------------|
C---4-------------------------------------------0-------------|
G-----7-5-4-5-0~------------------------------4---0-----------|
C-7---------------5-4-5-7-5-4-0-2------------0------5-4-2-0~--|
A---------------------------------3-0-3~----0-----------------|
F-------------------------------------------------------------|

Bridge

E-----3------0------3-------------3------0-------------------|
C-------------------------0-----------------------0-------0--|
G---5------5------5------5------5------5------5-4-----5-4----|
C--0------0------0------0------0------0------0-------0-------|
A-3------0------3------0------3------0------3-------0--------|
F------------------------------------------------------------|

E-----3------0------3-------------3------0--------------------------|
C-------------------------0--------------------5-4-5-0-----2-0-2----|
G---5------5------5------5------5------5------5-----------5------2--|
C--0------0------0------0------0------0------0-----------0----------|
A-3------0------3------0------3------0------3-----------0-----------|
F-------------------------------------------------------------------|

Outro-solo

E-----------------------------------|
C---------------0-------------------|
G----0---2--------0------------0----|
C---0---------0-----5--4--2----0----|
A--0---0----0------------------3----|
F-----------------------------------|