Owen - Has Been Text Guitar Tab

Learn the song with the online tablature player
Verse 1
("Whatever it is...")
C#--------------------------------------------------------------------------------|
B---------------------------------------------------------------------------------|
F#--------------------------------------------------------------------------------|
D------2-2-----2-2------2-2------2-2----------------------------------------------|  4x
A-------0-------0--------0--------2-----------------------------------------------|
D----0-------2--------0--------2--------------------------------------------------|

Post-Verse 1/Interlude:
C#---------0--------------------3-------------------------------------------------|
B---------------0------0h2--------------------------------------------------------|
F#-----0------------3--------3-------3--------------------------------------------|
D-------2----------2--------2-------2-------2-2------2-2--------------------------|
A-------------0---------------0--------------0--------2---------------------------|
D----0-----------------2------------------0--------2------------------------------|

C#---------0----------------------------------------------------------------------|
B---------------0------0h2--------------------------------------------------------|
F#-----0------------3--------3----------------2-----------------------------------|
D-------2----------2--------2---2------2-2-----2-2--------------------------------|  1x
A-------------0---------------0---------0-------0---------------------------------|
D----0-----------------2-------------0--------2-----------------------------------|

Verse 2
("I hate to be the one...")
C#---------0--------------------3-------------------------------------------------|
B---------------0------0h2--------------------------------------------------------|
F#-----0------------3--------3-------3--------------------------------------------|
D-------2----------2--------2-------2-------2-2------2-2--------------------------|
A-------------0---------------0--------------0--------2---------------------------|
D----0-----------------2------------------0--------2------------------------------|

C#---------0----------------------------------------------------------------------|
B---------------0------0h2--------------------------------------------------------|
F#-----0------------3--------3----------------2-----------------------------------|
D-------2----------2--------2---2------2-2-----2-2--------------------------------|  2x
A-------------0---------------0---------0-------0---------------------------------|
D----0-----------------2-------------0--------2-----------------------------------|

C#---------0--------------------3-------------------------------------------------|
B---------------0------0h2--------------------------------------------------------|
F#-----0------------3--------3-------3--------------------------------------------|
D-------2----------2--------2-------2-------2-2------2-2--------------------------|
A-------------0---------------0--------------0--------2---------------------------|
D----0-----------------2------------------0--------2------------------------------|

C#---------0----------------------------------------------------------------------|
B---------------0------0h2--------------------------------------------------------|
F#-----0------------3--------3----------------2-----------------------------------|
D-------2----------2--------2---2------2-2----2-----------------------------------|  1x
A-------------0---------------0---------0-----------------------------------------|
D----0-----------------2-------------0--------2-----------------------------------|

Pre-bridge: ("That you're blinded...")
C#---3--0-------------------------------------------------------------------------|
B-----3--0-----0------------------------------------------------------------------|
F#----------3-----2---------------------------------------------------------------|
D---------------------------------------------------------------------------------|  1x
A---------------------------------------------------------------------------------|
D----2------4-----2---------------------------------------------------------------|

Bridge
("Well now you know...")
C#-----------------------------------0--------------0-----------------------------|
B----5------------5-----------5--------------5------------------------------------|
F#------3--------3--3------------3------3-------3------3--------------------------|
D------6-----6-----6-----6------6------6-------6------6---------------------------|  3x
A-----------------------------0----0----------------------------------------------|
D----0-----0---0-------0---------------------4----4-------------------------------|

C#-----------------------------------0--------------------------------------------|
B----5------------5-----------5-------------5-------------------------------------|
F#------3--------3--3------------3------------------------------------------------|
D------6-----6-----6-----6------6------6------------------------------------------|  1x
A-----------------------------0----0----------------------------------------------|
D----0-----0---0-------0--------------------4-------------------------------------|

Post-Verse 1/Interlude:
C#---------0--------------------3-------------------------------------------------|
B---------------0------0h2--------------------------------------------------------|
F#-----0------------3--------3-------3--------------------------------------------|
D-------2----------2--------2-------2-------2-2------2-2--------------------------|
A-------------0---------------0--------------0--------2---------------------------|
D----0-----------------2------------------0--------2------------------------------|

C#---------0----------------------------------------------------------------------|
B---------------0------0h2--------------------------------------------------------|
F#-----0------------3--------3----------------2-----------------------------------|
D-------2----------2--------2---2------2-2-----2-2--------------------------------|  1x
A-------------0---------------0---------0-------0---------------------------------|
D----0-----------------2-------------0--------2-----------------------------------|

Verse 3
("Whoever you think...")
C#---------0--------------------3-------------------------------------------------|
B---------------0------0h2--------------------------------------------------------|
F#-----0------------3--------3-------3--------------------------------------------|
D-------2----------2--------2-------2-------2-2------2-2--------------------------|
A-------------0---------------0--------------0--------2---------------------------|
D----0-----------------2------------------0--------2------------------------------|

C#---------0----------------------------------------------------------------------|
B---------------0------0h2--------------------------------------------------------|
F#-----0------------3--------3----------------2-----------------------------------|
D-------2----------2--------2---2------2-2-----2-2--------------------------------|  1x
A-------------0---------------0---------0-------0---------------------------------|
D----0-----------------2-------------0--------2-----------------------------------|

C#---------0--------------------3-------------------------------------------------|
B---------------0------0h2--------------------------------------------------------|
F#-----0------------3--------3-------3--------------------------------------------|
D-------2----------2--------2-------2-------2-2------2-2--------------------------|
A-------------0---------------0--------------0--------2---------------------------|
D----0-----------------2------------------0--------2------------------------------|

C#---------0----------------------------------------------------------------------|
B---------------0------0h2--------------------------------------------------------|
F#-----0------------3--------3----------------2-----------------------------------|
D-------2----------2--------2---2------2-2----2-----------------------------------|  1x
A-------------0---------------0---------0-----------------------------------------|
D----0-----------------2-------------0--------2-----------------------------------|

Pre-outro:
C#---3--0------------------------------0------------------------------------------|
B-----3--0-----0----------------------0-------------------------------------------|
F#----------3-----2-3p2p0--------3------------------------------------------------|
D------------------------2------4-------------------------------------------------|  1x
A------------------------------4----------0---------------------------------------|
D----2------4-----2-----------4----4------0---------------------------------------|

Outro
("And i know it hurts...")
C#---0----x----0----0-------------------------------------------------------------|
B----2----0----0----0-------------------------------------------------------------|
F#---3----0----3----3-------------------------------------------------------------|
D----2----2----4----4-------------------------------------------------------------|
A----0----2----4----0-------------------------------------------------------------|
D----x----x----4----0-------------------------------------------------------------|

C#---0----x----0------------------------------------------------------------------|
B----2----0----0------------------------------------------------------------------|
F#---3----0----3------------------------------------------------------------------|
D----2----2----4------------------------------------------------------------------|
A----0----2----0------------------------------------------------------------------|
D----x----x----0------------------------------------------------------------------|

C#---0----x----0----0-------------------------------------------------------------|
B----2----0----0----0-------------------------------------------------------------|
F#---3----0----3----3-------------------------------------------------------------|
D----2----2----4----4-------------------------------------------------------------|
A----0----2----4----0-------------------------------------------------------------|
D----x----x----4----0-------------------------------------------------------------|

C#---0----x----0----0-------------------------------------------------------------|
B----2----0----0----0-------------------------------------------------------------|
F#---3----0----3----3-------------------------------------------------------------|
D----2----2----4----3-------------------------------------------------------------|  1x
A----0----2----0----0-------------------------------------------------------------|
D----x----x----0----0-------------------------------------------------------------|

whatever it is you think you are, you aren't a good friend; unique, well read, good
looking, or smart. well now you know. i hate to be the one to bare such bad news.
i know it hurts to hear but it's true. you don't mean anything to anyone, but me.
even i think that you're blinded by conceit. now you know, that free beer and basement
shows don't mean you've made it. it's what you do, not who you were or what you wear
or where you've been...so do something. whoever you think is watching you dance from
across the room, they aren't. if anything they feel sorry for you because you try so
hard. i know it hurts to hear, but it's the truth so you might as well hear it from a
friend. your'e a has been, that never was. and i know it's mean to say, but it's
something i've been meaning to say to you for awhile. you're a has been, that never was,
or will be.