Owen - I Woke Up Today Text Guitar Tab

Learn the song with the online tablature player
Intro/Verse: 3x
E-----------------------0----------------------------|
B------2--------0----------------2------0------0-----|
G-----------2------2-------2---------2------1-2-2-1--|
D----2-------2----2-------2----2------2--------------|
A---0----0------0-----0-------0----0----0--0---------|
E----------------------------------------------------|

E-------------------------0--------------------------|
B----------2------0----------------------------------|
G--------------2------2-------2----------------------|
D---------2-----2----2-------2-----------------------|
A----------------------------------------------------|
E---0h2------2----2-----2----------------------------|

E----------------------0-----------------------------|
B------2-------0-------------------------------------|
G----------2-------1------1--------------------------|
D----2------2-----2------2---------------------------|
A----------------------------------------------------|
E--2-----2-----0-----0-------------------------------|

Chorus One
1x
E-------0---------------------------2-----------2----|
B---3-------3-----------0---2------------2-----------|
G------------4--1---2----------2-------2----2--------|
D-----4------------2--2---2---4-------4----4------4--|
A---2-----2-----------------------4-----------4------|
E---------------0-----------2------------2-----------|

E-------0---------0----------------------------------|
B---3-------3-----0----------------------------------|
G------------4----1----------------------------------|
D-----4-----------2----------------------------------|
A---2-----2-------2----------------------------------|
E-----------------0----------------------------------|

Post-Chorus/Pre-Verse: 1x
E-----------------------0----------------------------|
B------2--------0----------------2------0------0-----|
G-----------2------2-------2---------2------1-2-2-1--|
D----2-------2----2-------2----2------2--------------|
A---0----0------0-----0-------0----0----0--0---------|
E----------------------------------------------------|

E-------------------------0--------------------------|
B----------2------0----------------------------------|
G--------------2------2-------2----------------------|
D---------2-----2----2-------2-----------------------|
A----------------------------------------------------|
E---0h2------2----2-----2----------------------------|

E--------------------------0-------------------------|
B------2-------0-------------------------------------|
G----------2-------1h2p1h2---------------------------|
D----2------2-----2----------------------------------|
A----------------------------------------------------|
E--2-----2-----0-------------------------------------|

Verse
2x
E-----------------------0----------------------------|
B------2--------0----------------2------0------0-----|
G-----------2------2-------2---------2------1-2-2-1--|
D----2-------2----2-------2----2------2--------------|
A---0----0------0-----0-------0----0----0--0---------|
E----------------------------------------------------|

E-------------------------0--------------------------|
B----------2------0----------------------------------|
G--------------2------2-------2----------------------|
D---------2-----2----2-------2-----------------------|
A----------------------------------------------------|
E---0h2------2----2-----2----------------------------|

E----------------------0-----------------------------|
B------2-------0-------------------------------------|
G----------2-------1------1--------------------------|
D----2------2-----2------2---------------------------|
A----------------------------------------------------|
E--2-----2-----0-----0-------------------------------|

Chorus Two
3x
E-------0---------------------------2-----------2----|
B---3-------3-----------0---2------------2-----------|
G------------4--1---2----------2-------2----2--------|
D-----4------------2--2---2---4-------4----4------4--|
A---2-----2-----------------------4-----------4------|
E---------------0-----------2------------2-----------|

Post-Chorus Two: 1x
E-------0---------0----------------------------------|
B---3-------3-----0----------------------------------|
G------------4----1----1-2-4-------------------------|
D-----4-----------2----------------------------------|
A---2-----2-------2----------------------------------|
E-----------------0----0-2-4-------------------------|

Outro
1x
E-----------------------0----------------------------|
B------2--------0----------------2------0------0-----|
G-----------2------2-------2---------2------1-2-2-1--|
D----2-------2----2-------2----2------2--------------|
A---0----0------0-----0-------0----0----0--0---------|
E----------------------------------------------------|

E-------------------------0--------------------------|
B----------2------0----------------------------------|
G--------------2------2-------2----------------------|
D---------2-----2----2-------2-----------------------|
A----------------------------------------------------|
E---0h2------2----2-----2----------------------------|

E----------------------0-----------------------------|
B------2-------0-------------------------------------|
G----------2-------1------1--------------------------|
D----2------2-----2------2---------------------------|
A----------------------------------------------------|
E--2-----2-----0-----0-------------------------------|

E-----------------------0----------------------------|
B------2--------0----------------2------0------0-----|
G-----------2------2-------2---------2------1-2-2-1--|
D----2-------2----2-------2----2------2--------------|
A---0----0------0-----0-------0----0----0--0---------|
E----------------------------------------------------|

E-------------------------0--------------------------|
B----------2------0----------------------------------|
G--------------2------2-------2----------------------|
D---------2-----2----2-------2-----------------------|
A----------------------------------------------------|
E---0h2------2----2-----2----------------------------|

E--------------------------0-------------------------|
B------2-------0-------------2-----------------------|
G----------2-------1h2p1h2---------------------------|
D----2------2-----2----------------------------------|
A------------------------------0---------------------|
E--2-----2-----0-------------------------------------|

i woke up today, and felt my age for the first time in both my mind and body. and my
are less of fitting in, and more of being a better man. my overbite is getting worse. my
fucking face hurts. i woke up today, with the whimper and not the bang of a school boy,
a father. and it seems those fifteen pounds i've lost since you left, were the part of me
you loved most, and knew best. i woke up today, feeling my age and the sum of everything
ever done. either i just got kicked in the teeth, or time has changed me.