Owen - Im Not Going Anywhere Tonight Text Guitar Tab

Learn the song with the online tablature player
taken from Maureen's tab:
verse
d.> -----5—5---5—5---------5—5--5----------|
b.> -----3—3---3—3---------3—3--3----------|
g.> -----0—0---0—0---------0—0--0----------| repeat x3
d.> -----0—0---0—0--0------0—0--0----------|
g.> -5—5---5—5---5----0—0---0--0-----------|
C.> ---------------------------------------|

then
d|--5---5----------------------------------|
B|--3---3----------------------------------|
g|--0---0----------------------------------|
D|--4---5----------------------------------|
G|--x---x----------------------------------|
C|--4---5----------------------------------|

chorus
d|---5-------------0---------------------------------------------------------|
B|---3----7----3---0---------------------------------------------------------|
g|---0----0----0---0---------------------------------------------------------|
D|---0----4----2---0---------------------------------------------------------|
G|--0-----x----x---0---------------------------------------------------------|
C|-------6----4--------------------------------------------------------------|

outro
e|--5--5--5--5-4-5-----------------------------------------------------------|
B|--3--3--3--0---------------------------------------------------------------|
G|--0--0--0--0---------------------------------------------------------------|
D|--x--x--x--0---------------------------------------------------------------|
A|--5--4--2--0---------------------------------------------------------------|
E|---------------------------------------------------------------------------|