Owen - Pietro Crespi Text Guitar Tab

Learn the song with the online tablature player
Owen - "Pietro Crespi" (unreleased)

Intro

|----0------7------------------------0--|
|------7/9-----9--7\5---5-----0------0--|
|---------------------6-----0--------0--|
|-------------------------4-------0--0--|
|---------------------------------------|
|--0----------------------------5----5--|

|-----------------|
|-----------------|
|--------0--------|
|------0----------|
|--0h2---------0--|
|----------4h5----|

Verse 1
(play this whole part two times)

|----0------7------------------------0--|
|------7/9-----9--7\5---5-----0------0--|
|---------------------6-----0--------0--|
|-------------------------4-------0--0--|
|---------------------------------------|
|--0----------------------------5----5--|

|----------------------|
|----------------------|
|--------0-------------|
|------0----4p2p0---0--|
|--0h2------------4----|
|----------------------|

|----0------7------------------------0--|
|------7/9-----9--7\5---5-----0------0--|
|---------------------6-----0--------0--|
|-------------------------4-------0--0--|
|---------------------------------------|
|--0----------------------------5----5--|

|-----------------|
|-----------------|
|--------0--------|
|------0----------|
|--0h2---------0--|
|----------4h5----|

Chorus 1
(The bass notes in parentheses are really tough to fit in, timing wise.
You can get away with not playing them if you choose not to.)

|-----0---------0-------0----------0----|
|-----0-----------0-----0------------0--|
|-----0------6----------0-------6-------|
|-----0----0------------0-----0---------|
|---------------------------------------|
|--2--2--4----(4)----5--5---7----(7)----| (2 times)

Verse 2
(play this whole part three times)

|----0------7------------------------0--|
|------7/9-----9--7\5---5-----0------0--|
|---------------------6-----0--------0--|
|-------------------------4-------0--0--|
|---------------------------------------|
|--0----------------------------5----5--|

|----------------------|
|----------------------|
|--------0-------------|
|------0----4p2p0---0--|
|--0h2------------4----|
|----------------------|

|----0------7------------------------0--|
|------7/9-----9--7\5---5-----0------0--|
|---------------------6-----0--------0--|
|-------------------------4-------0--0--|
|---------------------------------------|
|--0----------------------------5----5--|

|-----------------|
|-----------------|
|--------0--------|
|------0----------|
|--0h2---------0--|
|----------4h5----|

Chorus 2

|-----0---------0-------0----------0----|
|-----0-----------0-----0------------0--|
|-----0------6----------0-------6-------|
|-----0----0------------0-----0---------|
|---------------------------------------|
|--2--2--4----(4)----5--5---7----(7)----|

|-----0---------0-------0----------0------------------|
|-----0-----------0-----0------------0----------------|
|-----0------6----------0-------6------0--------------|
|-----0----0------------0-----0--------------------0--|
|------------------------------------------9---7------|
|--2--2--4----(4)----5--5---7----(7)-----7---7---7----|

|-----0-----------------------|
|-----0-----------------------|
|-----0---------0-------------|
|-----0-------0----4p2p0---0--|
|--------0h2-------------4----|
|--5--5-----------------------|

Bridge

|----7p0----4--5--4--0--0---------0-------0--|
|----0---0--0--0--0--0--0-----0-------0------|
|----6------2--4--2--0--6-------6-------6----|
|-----------0--0--0-----5--------------------|
|-----------0--0--0--------------------------|
|--0--------0--0--0-----5---5-------5--------|

|----7--4--5--4--0--0---------0-------0--|
|----0--0--0--0--0--0-----0-------0------|
|----6--2--4--2--0--6-------6-------6----|
|-------0--0--0-----5--------------------|
|-------0--0--0--------------------------|
|--0----0--0--0-----5---5-------5--------| (2 times)

|----7p0----4--5--4--0--0--|
|----0---0--0--0--0--0--0--|
|----6------2--4--2--0--6--|
|-----------0--0--0-----5--|
|-----------0--0--0--------|
|--0--------0--0--0-----5--|

Verse 3
(play this whole part two times*)

|----0------7------------------------0--|
|------7/9-----9--7\5---5-----0------0--|
|---------------------6-----0--------0--|
|-------------------------4-------0--0--|
|---------------------------------------|
|--0----------------------------5----5--|

|----------------------|
|----------------------|
|--------0-------------|
|------0----4p2p0---0--|
|--0h2------------4----|
|----------------------|

|----0------7------------------------0--|
|------7/9-----9--7\5---5-----0------0--|
|---------------------6-----0--------0--|
|-------------------------4-------0--0--|
|---------------------------------------|
|--0----------------------------5----5--|

|-----------------|
|-----------------|
|--------0--------|
|------0----------|
|--0h2---------0--|
|----------4h5----|

(*but end on this)

|---------------------|
|---------------------|
|--------0------------|
|------0---------4----|
|--0h2---------0------|
|----------4h5-----0--|