Owen - Skin And Bones Text Guitar Tab

Learn song with the online tabulature player
-------------------------------------------------------------------------------
                             SKIN AND BONES - Owen
-------------------------------------------------------------------------------
Tabbed by: Robert Piller
Email: nothin7@hotmail.com

Tuning: Standard

Here's the main riff, with the timing below:

e|-----------0-------1-------------------------------0-------1---------------------|
B|-----1---3---1-------------------------------1---3---1---------------------------|
G|---2---------------------------------------2-------------------------------------|
D|-0---------------------------2-3---------0---------------------------2-3--(2)----|
A|-----------------0-----1---3-----------3-----------------0-----1---3--------(3)--|
E|---------------------------------------------------------------------------------|
   1 . . . 2 . . . 3 . . . 4 . . . 5 . . . 1 . . . 2 . . . 3 . . . 4 . . . 5 . 

That should be a start...