Owen - You Should Do It Now While Its On Your Mind Text Guitar Tab

Learn the song with the online tablature player
           Owen - You Should Do It Now WHile It's On Your Mind

D|--------0-----------0----------------------------------0-----------------|
A|----2/5---0-----2/4---0-----0----------------------2/5---0----------0----|
F#|-------------------------------0--------0------------------------0------|
D|------------------------------5--------2---0--------------------------0--|
A|--------------0-----------2----------------------0---------------7-------|
D|--0----------------------------------0-------------------------5---------|

D|----------------------------|
A|----------0--------0--------|
F#|-------4--------------0----|
D|------5----------2---2---0--|
A|----5-----------------------|
D|--5------------0------------|

D|------------------------------|
A|----------0--------0----------|
F#|-------4--------------0------|
D|------5----------2---2---0----|
A|----5----------------------4--|
D|--5------------0--------------|