Oxygen Empty Now - Intro Song Text Guitar Tab

Learn the song with the online tablature player
OXYGEN EMPTY NOW
                                 0En
                             INTRO SONG
Intro of Intro
---------------------------------------------------------------------|
---------------------------------------------------------------------|
---------------------------------------------------------------------|
---------0-2-2----0-2-2----0-3-3----0-2-2----0-3-3-------------------|
---------0-2-2----0-2-2----0-3-3----0-2-2----0-3-3-------------------|
---------------------------------------------------------------------|
         Use the Whammy Board

----------------------------------------------------------------------|
----------------------------------------------------------------------|
----------------------------------------------------------------------|
--0-2-2-2-0-2-2-2-0-2-2-2-3-3-3-0-2-2-2-0-2-2-2-0-2-2-2-3-3-3---------|
--0-2-2-2-0-2-2-2-0-2-2-2-3-3-3-0-2-2-2-0-2-2-2-0-2-2-2-3-3-3---------|
----------------------------------------------------------------------|

---------------------------------------------------------------------|
---------------------------------------------------------------------|
--0-2-2-2-0-2-2-2-0-2-2-2-3-3-0-3-2-2-2-0-2-2-2-0-2-2-2-3-3-3--------|
--0-2-2-2-0-2-2-2-0-2-2-2-3-3-3-0-2-2-2-0-2-2-2-0-2-2-2-3-3-3--------|
---------------------------------------------------------------------|
---------------------------------------------------------------------|

----------------------------------------------------------------------|
----------------------------------------------------------------------|
----------------------------------------------------------------------|
--0-2-2-2-0-2-2-2-0-2-2-2-3-3-3-0-2-2-2-0-2-2-2-0-2-2-2-3-3-3---------|
--0-2-2-2-0-2-2-2-0-2-2-2-3-3-3-0-2-2-2-0-2-2-2-0-2-2-2-3-3-3---------|
----------------------------------------------------------------------|

---------------------------------------------------------------------|
--0-2-2-2-0-2-2-2-0-2-2-2-3-3-3-0-2-2-2-0-2-2-2-0-2-2-2-3-3-3--------|
--0-2-2-2-0-2-2-2-0-2-2-2-3-3-3-0-2-2-2-0-2-2-2-0-2-2-2-3-3-3--------|
---------------------------------------------------------------------|
---------------------------------------------------------------------|
---------------------------------------------------------------------|

---------------------------------------------------------------------|
---------------------------------------------------------------------|
---------------------------------------------------------------------|
--0-2-2-2-0-2-2-2-0-2-2-2-3-3-3-0-2-2-2-0-2-2-2-0-2-2-2-3-3-3--------|
--0-2-2-2-0-2-2-2-0-2-2-2-3-3-3-0-2-2-2-0-2-2-2-0-2-2-2-3-3-3--------|
---------------------------------------------------------------------|

---------------------------------------------------------------------|
---------------------------------------------------------------------|
---------------------------------------------------------------------|
---------------------------------------------------------------------|
---------------------------------------------------------------------|
--0-2-2-2-0-2-2-2-0-2-2-2-3-3-3-0-2-2-2-0-2-2-2-0-2-2-2-3-3-3--------|