Ozlem Tekin - Laubali Text Guitar Tab

Learn the song with the online tablature player
Ozlem Tekin - Laubali

Intro

e|----------------------------------------------------------------------------------------------|
B|----------------------------------------------------------------------------------------------|
G|-----9-9-9-9-9-9-9-----8-8-8-8-8-8-8-----11-11-11-11-11-11-11-----13-14-13-11-11-9------------|
D|----------------------------------------------------------------------------------------------|
A|----------------------------------------------------------------------------------------------|
E|----------------------------------------------------------------------------------------------|

Laubali Kismi:

e|----------------------------------------------------------------------------------------------|
B|----------------------------------------------------------------------------------------------|
G|----11--9---------------9----11--9------------------------------------------------------------|
D|--------------11--11--------------------11---11--12--11---7---9--11--12---11--9--9--7---------|
A|----------------------------------------------------------------------------------------------|
E|----------------------------------------------------------------------------------------------|

Solo

e|--------------------------------------------------------------------------------|
B|-12-12-12-10-10-10-9-9-10-10-10-9-9-9-7-7-9-9-9-7-7-7-5-5-7-7-7-5-5-5-4-4--2----|
G|--------------------------------------------------------------------------------|
D|--------------------------------------------------------------------------------|
A|--------------------------------------------------------------------------------|
E|--------------------------------------------------------------------------------|

e|---------------------------------------------------------------------|
B|--2-0-0-0-0-0-0-0-0-0-0-0---------2-0-0-0-0-0-0-0-0-0-0-0------------|
G|---------------------------2---1----------------------------2---1----|
D|---------------------------------------------------------------------|
A|---------------------------------------------------------------------|
E|---------------------------------------------------------------------|