Ozma - Baseball Text Guitar Tab

Learn song with the online tabulature player
e---------------------------------------------------------------------------|
B---------------------------------------------------------------------------|
G-8-8-------8-10----10-10-8--10s12-8--8-8------8-10--------------8----------|
D------12--------8-------------------------12-------8--8-8------------------|
A----------------------------------------------------------11-10------------|
E---------------------------------------------------------------------------|

e---------------------------------------------------------------------------|
B---------------------------------------------------------------------------|
G-8-8-------8-10----10-10-8--10s12-8--8-8------8-10--------------8----------|
D------12--------8-------------------------12-------8--8h9------------------|
A----------------------------------------------------------11-10------------|
E---------------------------------------------------------------------------|