Ozma - Lorraine Text Guitar Tab

Learn the song with the online tablature player
e--------------------9-7---------------------|
B------------10----------10-9---7------------|
G---6--7--9-----------------------9---7------|
D--------------------------------------------|
A--------------------------------------------|
E--------------------------------------------|

e--------------------------------------------|
B------------10-----------------------10-9---|
G---6--7--9----------------------------------|
D--------------------------------------------|
A--------------------------------------------|
E--------------------------------------------|

the keyboard then plays the following melody
e--------------------------------------------|
B----9--7-9-10--9-----9--7-9-10--9-----------|
G------------------6-------------------------|
D--------------------------------------------|
A--------------------------------------------|
E--------------------------------------------|

e--------------------------------------------|
B----9--7-9-10--9-----9----10----------------|
G------------------6-----------6-------------|
D--------------------------------------------|
A--------------------------------------------|
E--------------------------------------------|

intro chords

A / Bmi / F#mi / C#mi    3x
A   Bmi   F#mi   E

verse chords

A                C#mi             F#mi      Bmi
there's just one thing i couldn't find one girl who couldn't be mine
A        C#mi             F#mi              Bmi
she's in love with calvin klein    etc...

the first guitar melody is then played over the following chords:

A   F#mi   Bmi   E
A   F#mi   Bmi   E

Verse 2

A         F#mi         D     E
lorraine, lorraine, my destiny
             F#mi     E              D              E
this song is over without you so i'm singing this refrain to you

repeat intro chords with keyboard melody

verse three

chorus

bridge
E         D       A      A/B/E/F#mi
until the night i realized
             D                    A   B   A   G#   F#mi    E
that i still see the world through candy-coated eyes

chords under the guitar solo
F#   / E / F#mi   / E / F#mi   / E / F#mi  / E / D      E      2x

Solo
e--14--12----------------------------------------------|
B---------14--12-14--12--------------------------------|
G-----------------------14--13--11-----9---------------|
D------------------------------------------------------|
A------------------------------------------------------|
E------------------------------------------------------|

e--14--12----------------------------------------------|
B---------14--12-14--12-----12-14--B15--14--12---------|
G-----------------------14-----------------------------|
D------------------------------------------------------|
A------------------------------------------------------|
E------------------------------------------------------|

octave buildup: A / B / C# / D / E  (2nd guitar continues up F# / G# )

chorus
intro chords with keyboard melody 4x
bridge acoustic

A   B   A   G#   F#
"candy coated eyes"