Ozma - Tetris Theme Text Guitar Tab

Learn the song with the online tablature player
Guitar 1 Intro
e|------------------------------------0--5-4-|
B|--5-----3----1----0---5-----3-----1--------|
G|----5-----4----2--------5------4-----------|
D|-------------------------------------------|
A|-------------------------------------------|
E|-------------------------------------------|

Guitar 1 (melody)
e|--0-----------------0-------------0--------|
B|----0-1-3-1-0-----1---3-1-0-0-1-3---1------|
G|--------------2-2---------------------2-2--|
D|-------------------------------------------|
A|-------------------------------------------|
E|-------------------------------------------|

e|----1-5-3-1-0---0-------------0------------|
B|--3-----------1---3-1-0-0-1-3---1----------|
G|----------------------------------2-2------|
D|-------------------------------------------|
A|-------------------------------------------|
E|-------------------------------------------|

guitar 2 (chords under the melody) e a e a d a e a