Ozma - Turtleneck Coverup Text Guitar Tab

Learn the song with the online tablature player
Artist : Ozma
Song   : Turtleneck Coverup
Album  : Spending Time on the Borderline

Intro
Guitar 1
Repeat 2x
e|----------------------------------------------------------|
B|-5--------------------------------------------------------|
G|---6--4h6-------------------------------------------------|
D|----------6--4-6-4----------4-6-4--7-7-6-6--4-6-4---------|
A|-------------------7-6-7-4------------------------7-6h7-4-|
E|----------------------------------------------------------|

Intro
Guitar 2
*Plays Chorus riff

Verse 1
Repeat 4x
e|--------|
B|--------|
G|-----2--|
D|-2-2-2--|
A|-2-2-0--|
E|-0-0----|

Verse 1
Bass Fill
PM (tuned for guitar)
A|-----0-|---6-5-4-|-----0-|---3-4|
E|-0-0---|-0-------|-0-0---|-4----|
*2nd Fill slightly modified depending on verse

Verse 2
PM
"FBI cover it up"
e|----------------------------|
B|----------------------------|
G|-----2-x-x-x------6-x-x-x---|
D|-2-2-2-x-x-x--6-6-6-x-x-x---|
A|-2-2-0-x-x-x--6-6-4-x-x-x---|
E|-0-0----------4-4-----------|

Pre-Chorus
Repeat 2x
e|-----------------------------------|
B|-----------------------------------|
G|------------------4-444-444-444-44-|
D|-4-444-444-444-44-4-444-444-444-44-|
A|-4-444-444-444-44-2-222-222-222-22-|
E|-2-222-222-222-22------------------|

Chorus
Repeat 2x
e|------------------------------|
B|------------------------------|
G|----2-------6------9------4---|
D|-22-2---66--6---99-9---44-4---|
A|-22-0---66--4---99-7---44-2---|
E|-00-----44------77-----22-----|

"Video Cameras in the trees..."

Bridge
e|------------------------------|
B|------------------------------|
G|---------------------4---4-4^-|
D|-------2---2-4^--4h6---6------|
A|-2-2h4---4--------------------|
E|------------------------------|

                   "Sometimes I wish.."
e|---------------------------------------------|
B|----7----------------------------------------|
G|6h8---8p6/4-33333333333333331111111100000000-|
D|---------------------------------------------|
A|---------------------------------------------|
E|---------------------------------------------|

         "Video cameras in the trees..."
e|------------------------------|
B|------------------------------|
G|------------------------------|
D|--9/0---9-----9/0-------------|
A|--9/0---9-----9/0-------------|
E|--7/0---7-----7/0-------------|

e|------------------------------|
B|------------------------------|
G|---------------------4---4-4^-|
D|-------2---2-4^--4h6---6------|
A|-2-2h4---4--------------------|
E|------------------------------|

              "Sometimes I wish.."
e|-------------------------------------------|
B|-------------------------------------------|
G|----4---4-33333333333333334444444444444444-|
D|-444-444-4---------------------------------|
A|-------------------------------------------|
E|-------------------------------------------|

e|--------------------------------------|
B|----------------55555555555555555555--|
G|6666666666666666--------555555553333--|
D|--------------------------------------|
A|--------------------------------------|
E|--------------------------------------|

Solo
e|------------------------------------------------|
B|------------------------------------------------|
G|-9-8-6------------------------------------------|
D|-------9-6-9-6-9^--6h9p6h9p6h9/11--------2/4^4^-|
A|---------------------------------11--2h4--------|
E|------------------------------------------------|