Ozma - Wake Up Text Guitar Tab

Learn the song with the online tablature player
Artist : Ozma
Song   : Wake Up
Album  : Spending Time on the Borderline

Verse

"Take my hand..."

   G    D    Em   B    C    G    A    D
e|-3----2----0---------0----3----0----2-|
B|-3----3----0---------1----3----2----3-|
G|-0----2----2----4----0----0----2----2-|
D|-0----0----2----4----2----0----2----0-|
A|-2---------0----2----3----2----0------|
E|-3---------0--------------3-----------|

Fill:

e|-----------------------------------|
B|-5----4--5--7--7-7--8-5--7--8--7---|
G|---------------------------------7-|
D|-----------------------------------|
A|-----------------------------------|
E|-----------------------------------|

Bridge

"Nightmares..."

   Em    B    C    D    G    D    C
e|-0----------0----2----3----2----0-|
B|-0----------1----3----3----3----1-|
G|-2-----4----0----2----0----2----0-|
D|-2-----4----2----0----0----0----2-|
A|-0-----2----3---------2---------3-|
E|-0--------------------3-----------|

Chorus

"Wake up..."

   G    C    Em   A     C    G    D
e|-3----0----0----0-----0----3----2-|
B|-3----1----0----2-----1----3----3-|
G|-0----0----2----2-----0----0----2-|
D|-0----2----2----2-----2----0----0-|
A|-2----3----0----0-----3----2------|
E|-3---------0---------------3------|

Chorus Fill

e|-----------------------|
B|-12-11-----12-11-------|
G|-------12--------12-12-|
D|-----------------------|
A|-----------------------|
E|-----------------------|