Ozric Tentacles - Kick Muck Text Guitar Tab

Learn song with the online tabulature player
Ozric Tentacles - Kick Muck - Main Riff

-17-13-12----13--------13-12----13-------13-12----13--------13-12---13--------13-12-------|
----------------------15--------------------15-------------------15-------------------15--|
------------------------------------------------------------------------------------------|
------------------------------------------------------------------------------------------|
------------------------------------------------------------------------------------------|
------------------------------------------------------------------------------------------|

Notice the grouping of the notes - they are pull-offs - listen to the song and the technique is obvious
Play the above a few times and then down a string for the key change:

------------------------------------------------------------------------------------------|
-17-13-12----13--------13-12----13-------13-12----13--------13-12---13--------13-12-------|
----------------------14--------------------14-------------------14-------------------14--|
------------------------------------------------------------------------------------------|
------------------------------------------------------------------------------------------|
------------------------------------------------------------------------------------------|

You should apply vibrato to the last note of the sequence