Ozzy Osbourne - I Cant Save You Text Guitar Tab

Learn the song with the online tablature player
INTRO+VERSE

D|-------------------------------------------------------------------------|
A|-------------------------------------------------------------------------|
F|-------------------------------------------------------------------------|
C|-------------------------------------------------------------------------|
G|---3/5-------------------3/5-------------------3/5-----------------------|
C|--------0-0-0-0-0-0-0-0-------0-0-0-0-0-0-0-0-------0-0-0-0-0-0-0-0------|
     P.M. . . . . . . . .       . . . . . . . .       . . . . . . . .

D|--------------------------|
A|--------------------------|
F|--------------------------|
C|--------------------------|
G|--------------------------|
C|--66666666--5555-3333-----|
    ........  .... ....

CHORUS
PLAY THIS X2)

D|------------------------------------------|
A|------------------------------------------|
F|------------------------------------------|
C|--3-3--------3-3--------3-3---3-5-6-6-5-3-|
G|------5-3-5------5-3-5------5-------------|
C|------------------------------------------|

BRIDGE

D|-------------------------------------------------------------------------|
A|-------------------------------------------------------------------------|
F|-------------------------------------------------------------------------|
C|-------------------------------------------------------------------------|
G|--5-5-3-5---5-3-5---5-3-5----------5-5-3-5---5-3-5---5-3-5---------------|
C|--------------------------0-0-0-0--------------------------0-0-0-0-------|
                            . . . .                          . . . .

SOLO BACKING

D|-------------------------------------------------------------------------|
A|-------------------------------------------------------------------------|
F|-------------------------------------------------------------------------|
C|-------------------------------------------------------------------------|
G|--7-7-5-7---7-5-7---7-5-7----------7-7-5-7---7-5-7---7-5-7---------------|
C|--------------------------5-5-5-5--------------------------5-5-5-5-------|
                            . . . .                          . . . .

There it is people.  Have fun with it.  GOOD LUCK!!!!  BUY BLACK RAIN!!!