Ozzy Osbourne - Tears Text Guitar Tab

Learn the song with the online tablature player
-------0-------------0-------------0-------------0----------
-----3---3---------3---3---------6---6---------3---3--------
---5-------5-----4-------4-----7-------7-----5-------5------
-7-------------3-------------6-------------7----------------

(Repeat four arpeggios above)

---0---8---0---------5---------0---8---0---------5----------
-----6---6---------5---5---------6---6---------5---5--------
(Repeat four arpeggios above)

---0---8---0-----0---8---0-------5-7-5---------5-7-5--------
-----6---6---------6---6-------5-------5-----5-------5------

-0-------------0--------------------------------------------
(Closes with a faint open A string)