P Diddy - Bad Boy 4 Life Text Guitar Tab

Learn the song with the online tablature player
                           Bad Boy 4 Life - P Diddy

Intro
e|---------------------------------------|
B|---------------------------------------|
G|---------------------------------------|
D|----------------------2----------------|
A|-------4--2------4-2-------------------|
E|-2--5-------5--2-----------------------|

Main Riff
e|-------------------------------------------------------------|
B|-------------------------------------------------------------|
G|------2------------------------------------------------------|
D|----2----4--2-4----2-----------------------------------------|
A|-----------------------4----4-2-4---44-2---------42----------|
E|-22--------------------------------------5--22-------5---2-52|

Outro
e|-------------------------------------------------------------|
B|-------------------------------------------------------------|
G|------2------------------------------------------------------|
D|----2----4--2-4----2-----------------------------------------|
A|-----------------------4----4-2-4---44-2---------42----------|
E|-22--------------------------------------5--22---------------|