P-Model - Kameari Pop Text Guitar Tab

Learn the song with the online tablature player
Intro riff is

                   C
----------------------------|
----------------------------|
-------------------5-5--55--|
----------2--------5-5--55--| x3
--0--2-0----4-0-2--3-3--33--|
----------------------------|

then

                   C    B
----------------------------|
----------------------------|
-------------------5-5--4---|
----------2--------5-5--4---|
--0--2-0----4-0-2--3-3--2---|
----------------------------|

then A (barre) into

Verses

A                                      F#
[Whatever the lyrics are here, don't know]

(x4)

Chorus
x2)

E        D
Hey you, this song

A  D    A
Is pop, kameari pop