Pacific Dub - Utica Text Guitar Tab

Learn song with the online tabulature player
Lead Guitar Riff:

e---------------------------------------------------|
B----12-12------------------------------------------|
G----------11-11--9-9--------------------9-9--11-11-|   x1
D---------------------12-12--9-9--12-12-------------|
A---------------------------------------------------|
E---------------------------------------------------|

e---------------------------------------------------|
B----10-10------------------------------------------|
G----------11-11--9-9--------------------9-9--------|
D---------------------12-12--9-9--12-12-------12b---|
A---------------------------------------------------| x1
E---------------------------------------------------|

e---------------------------------------------------|
B----12-12------------------------------------------|
G----------11-11--9-9--------------------9-9--11-11-|
D---------------------12-12--9-9--12-12-------------| x1
A---------------------------------------------------|
E---------------------------------------------------|

e---------------------------------------------------|
B----10-10------------------------------------------|
G----------11-11--9-9-------9----9-11-9-------------|
D---------------------12-12---12---------12-9-------| x1
A---------------------------------------------------|
E---------------------------------------------------|