Paco Rabanne - Black Xs Advert Text Guitar Tab

Learn the song with the online tablature player
PM: Palm Muted
d:  Downstroke
u:  Upstroke

Intro

E|-------------------------------------------|
B|-------------------------------------------|
G|-------------------------------------------|
D|---------------5-----5----5--6-5----5------|
A|-6-99-8-6----3----/6---/8---------8--------|
E|-6-99-8-6----------------------------------|

Chords (played after intro)

       { PM }            { PM }
   d   dududu d   du d u dududu
E|-------------------------------------------|
B|-------------------------------------------|
G|-5---555555-5---55-6-5-555555--66-5-3------|
D|-5---555555-5---55-6-5-555555--66-5-3------|
A|-3---333333-3---33-4-3-333333- 44-3-1------|
E|-------------------------------------------|

Outro

E|-------------------------------------------|
B|-------------------------------------------|
G|-------------------------------------------|
D|------5-----5----5--6-5----5---------------|
A|----3----/6---/8---------8-----------------|
E|-------------------------------------------|