Pageninetynine - The List Text Guitar Tab

Learn the song with the online tablature player
intro
----------------------------------------------------------|
----------------------------------------------------------|
---------1010101010101010---------------------------------|
-77777777----------------1010101010101010-----------------|
-----------------------------------------1010101010101010-|
----------------------------------------------------------|
PM.......................................................

verse
----------------------------------------------------------------|
----------------------------------------------------------------|
------------1010101010101010------------------------------------|
---77777777-1010101010101010-1010101010101010-55555555----------|
---77777777--8-8-8-8-8-8-8-8-1010101010101010-55555555----------|
---55555555-------------------8-8-8-8-8-8-8-8-33333333----------|
PM .. ... .  . .   . . .   .  . .   . . .   . .. ... .

chorus
------------------------------------------------------------|
------------------------------------------------------------|
------------10-1010-101010----------------------------------|
---7-77-777-10-1010-101010-10-1010-101010-5-55-555----------|
---7-77-777--8--8-8--8-8-8-10-1010-101010-5-55-555----------|
---5-55-555-----------------8--8-8--8-8-8-3-33-333----------|

Solo
----------------------------------------------------------|
----------------------------------------------------------|
---------1010101010101010---------------------------------|
-77777777----------------1010101010101010-----------------|
-----------------------------------------1010101010101010-|
----------------------------------------------------------|

Figure out how many times you have to play it yourself. Strumming can be a little
different sometimes.