Panda - El Elias Text Guitar Tab

Learn the song with the online tablature player
INTRO

(Guitarra 1)
e|------------------------------(X4)----------------|
b|----------8-------------------------8------9-8----|
g|-8/7-8-10---10--8-10-8-----8/7-8-10----10------10-|
d|--------------------------------------------------|
a|--------------------------------------------------|
E|--------------------------------------------------|

(Guitarra 2)
e|----------------------------------------------------|
b|-------------------------------------(X4)-----------|
g|-8-8-8-8-8------------------------------------------|
d|-8-8-8-8-8--8-8-8-8-8-8---6-6-6-6-6-6---8-8-8-8-8-8-|
a|-6-6-6-6-6--8-8-8-8-8-8---6-6-6-6-6-6---8-8-8-8-8-8-|
E|------------6-6-6-6-6-6---4-4-4-4-4-4---6-6-6-6-6-6-|

----------------------------|(introduccion al cuerpo con distorcion
crunchy, y cuerpo)----------|
"Siempre que tengas mal, el elias te salvara....."
(Guitarra 1 y 2)
e|------------------------------|
b|---------------(X8)-----------|
g|-8-8-8------------------------|
d|-8-8-8--5-5-5---6-6-6---8-8-8-|
a|-6-6-6--5-5-5---6-6-6---8-8-8-|
E|--------3-3-3---4-4-4---6-6-6-|

---(Coro, ok aqui son los primeros dos acordes
con distorcion y lo demas en clean con estilo
ska o reggue)-----------------------------------
"Tu siempre estas,Buscando ese lugar"
(Puede ser la mitad guitarra 2 y mitad guitarra
 1 o bien con un pedal comoquieran)
e|--------------------------|-----------------------|
b|-(DISTORCION)-------------|-(CLEAN CON RITMO SKA)-|
g|-8-8-8-8-8----------------|-----------------------|
d|-8-8-8-8-8--8-8-8-8-8-8---|---6-6----8-8----------|
a|-6-6-6-6-6--8-8-8-8-8-8---|---6-6----8-8----------|
E|------------6-6-6-6-6-6---|---4-4----6-6----------|

"y fijate que yo no quiero nada que tu me des,
 ni tus zapatos te vas a poder poner"
(Guitarras 1 y 2)
e|----------------------------------------------------|
b|---------------------(X2)---------------------------|
g|-8-8-8-8-8------------------------------------------|
d|-8-8-8-8-8--8-8-8-8-8-8---6-6-6-6-6-6---8-8-8-8-8-8-|
a|-6-6-6-6-6--8-8-8-8-8-8---6-6-6-6-6-6---8-8-8-8-8-8-|
E|------------6-6-6-6-6-6---4-4-4-4-4-4---6-6-6-6-6-6-|

(Guitarra 1)
e|------------------------------(X4)----------------|
b|----------8-------------------------8------9-8----|
g|-8/7-8-10---10--8-10-8-----8/7-8-10----10------10-|
d|--------------------------------------------------|
a|--------------------------------------------------|
E|--------------------------------------------------|

(Guitarra 2)
e|----------------------------------------------------|
b|-------------------------------------(X4)-----------|
g|-8-8-8-8-8------------------------------------------|
d|-8-8-8-8-8--8-8-8-8-8-8---6-6-6-6-6-6---8-8-8-8-8-8-|
a|-6-6-6-6-6--8-8-8-8-8-8---6-6-6-6-6-6---8-8-8-8-8-8-|
E|------------6-6-6-6-6-6---4-4-4-4-4-4---6-6-6-6-6-6-|

OUTRO

(Es con ritmo ska empieza con dos tiempos y ya se
normaliza, escuchen la rola para que vean)
(guitarra 1 o 2 o las 2)
e|--(RITMO SKA)-------------|
b|--------------------------|
g|-8-8----------------------|
d|-8-8--8-8--6-6--8-8--x2---|
a|-6-6--8-8--6-6--8-8-------|
E|------6-6--4-4--6-6-------|

(guitarra 1 o 2 o las 2)
e|--(RITMO SKA)---------------------------------------|
b|----------------------(x2)--------------------------|
g|-8-8-8-8-8------------------------------------------|
d|-8-8-8-8-8--8-8-8-8-8-8---6-6-6-6-6-6---8-8-8-8-8-8-|
a|-6-6-6-6-6--8-8-8-8-8-8---6-6-6-6-6-6---8-8-8-8-8-8-|
E|------------6-6-6-6-6-6---4-4-4-4-4-4---6-6-6-6-6-6-|

y eso es todo, chequenla segun yo esta 100% bien ,
saludos