Panda - Muã±eca Text Guitar Tab

Learn song with the online tabulature player
Band:Panda
Song:Muñeca
Album:Arroz Con Leche

Afinacion Estandar
Capo en 2do traste 

INTRO
Guitarra Acustica

e|---------------------------------|
b|---------------2-3-2-0-----------|
g|-2---4---2---4---------2---4-2-1-|
d|---2---2---2---------------------|
a|-0-------------------------------|
E|---------0-------2-------0-------|x1

e|-----------------------------------|
b|---------------2-3-2-0-------------|
g|-2---4---2---4---------2---2h4-2-1-|
d|---2---2---2-----------------------|
a|-0---------------------------------|
E|---------0-------2-------0---------|x1

Esta muy facil, cuestion de practica
e-mail: pndblink182@hotmail.com