Panda - No Te Deseo El Bien Pero Tampoco Te Deseo El Mal Text Guitar Tab

Learn the song with the online tablature player
                             No te deseo el bien pero tampoco el mal - Pxndx

Bueno ya esta .. prometí en la tab anterior poner el solo completo de esta rolaa de
.. y aca estamos jeje ^^

Identifiquen que el wey de panda usa un pedal Wah wah y en cierta parte del solo usa un
.. este segundo no es indispensable .. no pasa nada si no lo tienen jeje

e|12-15-12----------------------------------------------------------------*--|
B|---------15-12----------------------------------------------------------*--|
G|---------------14-12----------------------------------------------------*--|
D|-----------------------14--14^-12-14------------------------------------*--|
A|------------------------------------------12-12--12-14-12-10-12-10-10---*--|
E|------------------------------------------------------------------------*--|

e|--------------------12-15-12-----------------------------------------------------|
B|15^-15^--15^-15^-------------15-12-12-15-----------------------------------------|
G|---------------------------------------------------14^-12-14---------------------|
D|---------------------------------------------------------------------------------|
A|--------------------------------------------12-12------------12------------------|
E|---------------------------------------------------------------------------------|

e|-------------------------|
B|-------------------------|
G|----------12-------------| 2 Veces .. la tercera varia un poco :
D|14-12-14-----14-12-------|
A|-------------------12----|
E|-------------------------|

e|--------------------------15--13-12-10--12-10-8-7--8---------|
B|-------------------12-----15--13-12-10--12-10-8-7--8---------|
G|----------12----------14-------------------------------------|
D|14-12-14-----14-12-------------------------------------------|
A|-------------------------------------------------------------|
E|-------------------------------------------------------------|

Y listoo ^^ .. Puedo decir que el solo esta 90% exacto .... alguna correccion ya saben :)
Pronto subire el video con esa rola tokada por mi a youtube ... ahi se los pongo despues jeje ^^

| /  slide up
| \  slide down
| h  hammer-on
| p  pull-off
| ~  vibrato
| +  harmonic
| x  Mute note