Panda Su - Eric Is Dead Text Guitar Tab

Learn song with the online tabulature player
this is an awesome, pretty easy song just listen to it for the little bit of strumming in it

http://www.myspace.com/thepandasu

CAPO 4th FRET
ALL NOTES RELATIVE TO CAPO

E|--3-3-3-3-3-3-3-3-3-3-3-3-3-3-3-3-|
B|----------------------------------|
G|----------------------------------|
D|----------------------------------|
A|---------2-2-2-2---------3-3-3-3--|
E|-3-3-3-3---------0-0-0-0----------|

E|-3--3--3--3-|
B|-3--3--3--3-|
G|-------2----|
D|-------2--2-|
A|-2--2-----3-|
E|-3--2-------|

"When I am older I will change
Back to the way
I once was when we first
Set our eyes on it
Nothing's left, no turning back
I've already told you that
Count your knees and I'll count mine
We'll settle them in time"

And then all the "Oh, Oh, Oh"-ing