Panic! At The Disco - She Had The World Text Guitar Tab

Learn song with the online tabulature player
The greatest opening to a song i have heard in ages. :)

Harpsichord theme
E|-10------------7--------------------------|
B|----10-9-10-12--10-9-7-7---9---10---------|
G|-------------------------7---9---9--------|
D|-----------------------------------7------|
A|------------------------------------------|
E|------------------------------------------|
Guitar/ strings theme
E|------------------------------------------|
B|-----------------------10--------10-12-10-|
G|--------------------------9----9----------|
D|----------------------------11------------|
A|------------------------------------------|
E|------------------------------------------|
Bass theme
G|------------------------------------------|
D|---------------7---4----------------------|
A|-5----7---------------5---7---------------|
E|------------------------------5-----------|