Panky Trinidad - Behind Those Eyes Text Guitar Tab

Learn the song with the online tablature player
 Song           : Behind Those Eyes
 Artist         : Panky Trinidad & Chai Fonacier
 Album          : Pinoy Dream Academy Originals (Vol. II)
 Length         : 3:59

 Haayyyy... You really need to listen to this song para matiming... Ako nga
   10x kong pinakinggan just to get the proper pluck..
   Pinaghirapan ko talaga to... Hope You Like It... Please Rate....
          -This song goes to all Batch 2005-06 of KCC, FBC and FC-

e|------9---9-----------9----9--------------10--10--------------10--10-------|
B|---10--10--10--10--10--10--10---10--10--10--10--10--10--10--10--10--10--10-|
G|---------------------------------------------------------------------------|
D|-0------------0---0------------0---0---------------0---0---------------0---|
A|---------------------------------------------------------------------------|
E|---------------------------------------------------------------------------|

e|------9---9-----------9----9--------------10--10--------------10--10-------|
B|---10--10--10--10--10--10--10---10--10--10--10--10--10--10--10--10--10--10-|
G|---------------------------------------------------------------------------|
D|-0------------0---0------------0---0---------------0---0---------------0---|
A|---------------------------------------------------------------------------|
E|---------------------------------------------------------------------------|

e|--------------------------------------------------------------------|
B|------2---2------------2---2-----------2---2-----------3---3--------|
G|----2---2---2----2---2---2---2---2---2---2---2---2---2---2---2---2--|
D|--0------------0---0-----------0---0-----------0---0-----------0----|
A|--------------------------------------------------------------------|
E|--------------------------------------------------------------------|

e|--------------------------------------------------------------------|
B|------2---2------------2---2-----------2---2-----------3---3--------|
G|----2---2---2----2---2---2---2---2---2---2---2---2---2---2---2---2--|
D|--0------------0---0-----------0---0-----------0---0-----------0----|
A|--------------------------------------------------------------------|
E|--------------------------------------------------------------------|

e|--------------------------------------------------------------------|
B|------2---2------------2---2-----------2---2-----------3---3--------|
G|----2---2---2----2---2---2---2---2---2---2---2---2---2---2---2---2--|
D|--0------------0---0-----------0---0-----------0---0-----------0----|
A|--------------------------------------------------------------------|
E|--------------------------------------------------------------------|

e|--------------------------------------------------------------------|
B|------2---2------------2---2-----------2---2-----------3---3--------|
G|----2---2---2----2---2---2---2---2---2---2---2---2---2---2---2---2--|
D|--0------------0---0-----------0---0-----------0---0-----------0----|
A|--------------------------------------------------------------------|
E|--------------------------------------------------------------------|

     B        A
e|---2---|----0---|
B|---3---|----2---|
G|---4---|----2---|\
D|---4---|----2---| 2X
A|---2---|----0---|/
E|-------|--------|

then
e|-------------------------------------------------------------------|
B|------2---3---2-------2---3---2-----3---3-----------3---3---3------|
G|----2---2---2---2---2---2---2-----2---2---2---2---2---2---2---2----|
D|--2---------------0-------------------------0----------------------|
A|--------------------------------0---------------0------------------|
E|-------------------------------------------------------------------|

e|-----------------------------------------------------|
B|------2---2---2-------2---2---2------3---3-------3---|
G|----2---2---2---2---2---2---2--2---2---2---2---2-2---|
D|--0---------------0--------------0-----------0-------|
A|-------------------------------------------------0---|
E|-----------------------------------------------------|

Repeat Verse
Repeat Chorus

 Pasok na si Chai sa part na toh...
     B        A
e|---2---|----0---|
B|---3---|----2---|
G|---4---|----2---|\
D|---4---|----2---| Ulit-ulit na lang until end
A|---2---|----0---|/
E|-------|--------|

Di ko magets ang Lyrics... if anyone knows .. pwede ba send nyu me
  sa email or friendster ko... tnx...

.For Comments, please send message in Friendster.

...Pa add na lang din sa Friendster at MySpace..

Tnx... Peace Out!!!!!!