Pansy Division - Political Asshole Text Guitar Tab

Learn the song with the online tablature player
Verse
|------------------------------|
|------------------------------|
|------------------------------|
|------------------------------|
|--------------5-5-5-5-3--3-3-3|
|0--0-0-5--5-5-----------------|

Chorus/Outro
|---------------|
|---------------|
|---------------|
|7-7-7-7-9-9-9-9|
|7-7-7-7-9-9-9-9|
|5-5-5-5-7-7-7-7|