Pantera - Base Mouth Text Guitar Tab

Learn song with the online tabulature player
This is the tab to the song Dime plays in dime clinic, heres the link to it if you wanna
it out: http://www.youtube.com/watch?v=BJiBaGbhRtQ This Is mostly accurate, I justed watched
how dime played it, and figured it out myself.


Getcha Pull!

      (x2)
e|--------------------------------|
B|--------------------------------|
G|-X-X-X--------------------------|
D|-X-X-X--2--2-1------------------|
A|-X-X-X--2--2-1------------------|
E|-X-X-X--0-----------------------|
                                
                    (x4)                     (x2)
e|------|-------|--------------|-----------------------------------------|
B|------|-------|--------------|-----------------------------------------|
G|------|-------|-X-X-X--------|-----------------------------------------|
D|--(2)-|-2-(2)-|-X-X-X--2-2-1-|-4-4-4-4-4-4-4-4-4-4-4-4-4-4-4-4/1-4-----|
A|--(2)-|-2-(2)-|-X-X-X--2-2-1-|-4-4-4-4-4-4-4-4-4-4-4-4-4-4-4-4/1-4-----|
E|--(0)-|-0-(0)-|-X-X-X--0-----|-----------------------------------------|
                                    (p.m)          (p.m)
                                first base, second base, third base, home run

e|--------------------------------|
B|--------------------------------|
G|-X-X-X--------------------------|
D|-X-X-X--2-2-1-------------------|
A|-X-X-X--2-2-1-------------------|
E|-X-X-X--0-----------------------|    

THE FUCKING BITCH HAS A BASE MOUTH!