Pantera - Mission Impossible Theme Text Guitar Tab

Learn the song with the online tablature player
My friend taught me thing song it is very easy. have fun! ;]

With distortion
|-------------------------------|
|-------------------------------|
|2-2--5-7--2-2--0-1---2-2--5-7--|
|-------------------------------|
|-------------------------------|
|-------------------------------|

clean
|-12-9------12-9------12-9------------|
|-------11--------10--------9---7-9---|
|-------------------------------------|
|-------------------------------------|
|-------------------------------------|
|-------------------------------------|

|-------11--------10--------9-------|
|-12-9------12-9------12-9------7-9-|
|-----------------------------------|
|-----------------------------------|
|-----------------------------------|
|-----------------------------------|

with distortion
|-----------------------------------|
|-----------------------------------|
|-2-2--5-7--2-2--0-1--2-2--5-7------|
|-2-2--5-7--2-2--0-1--2-2--5-7------|
|-----------------------------------|
|-----------------------------------|