Pantera - Uplift Text Guitar Tab

Learn the song with the online tablature player
e------------------------------------------------------------------------
B------------------------------------------------------------------------
G------------------------------------------------------------------------
D------------------------------------------------------------------------
A----------3-0---------------3-0---------------3-0--------------2B-0-----
E--5-0-3-0---------0-5-0-3-0---------0-5-0-3-0-----------0-2B-0------2-0-

e------------------------------------------------------------------------
B------------------------------------------------------------------------
G------------------------------------------------------------------------
D------------------------------------------------------------------------
A----------3-0---------------3-0---------------3-0-----------------------
E--5-0-3-0---------0-5-0-3-0---------0-5-0-3-0-----------010020030-------