Paolo Nutini - Bear Me In Mind Text Guitar Tab

Learn the song with the online tablature player
INTRO

e:--------------------|\
b:--------------------| \
g:--------------------|  \
D:-0-0-0-33-0-0-0-33--|   x4
A:-0-0-0-33-0-0-0-33--|  /
D:-0-0-0-33-0-0-0-33--| /
*:-D-D-D-UD-U-D-D-UD--|/

VERSE 1

e:------------|
b:------------|
g:------------|
D:-0-----5----|
A:-0-x16-5-x16|
D:-0-----5----|
*:-D-----D----|

e:--------------------|
b:--------------------|
g:--------------------|
D:-0-0-0-33-0-0-0-33--|
A:-0-0-0-33-0-0-0-33--|
D:-0-0-0-33-0-0-0-33--|
*:-D-D-D-UD-U-D-D-UD--|

e:------------|
b:------------|
g:------------|
D:-0-----5----|
A:-0-x16-5-x16|
D:-0-----5----|
*:-D-----D----|

CHORUS

e:-------------------------------------|
b:-------------------------------------|
g:-------------------------------------|
D:-7-----6-----5----0----3----2----1---|
A:-7-x16-6-x2--5-x4-0-x4-3-x8-2-x4-1-x4|
D:-7-----6-----5----0----3----2----1---|
*:-D-----D-----D----D----D----D----D---|

e:--------------------|\
b:--------------------| \
g:--------------------|  \
D:-0-0-0-33-0-0-0-33--|   x2
A:-0-0-0-33-0-0-0-33--|  /
D:-0-0-0-33-0-0-0-33--| /
*:-D-D-D-UD-U-D-D-UD--|/

VERSE 2

Same as Verse 1

CHORUS 2

e:-------------------------------------|
b:-------------------------------------|
g:-------------------------------------|
D:-7-----6-----5----0----3----2----1---|
A:-7-x16-6-x2--5-x4-0-x4-3-x8-2-x4-1-x4|
D:-7-----6-----5----0----3----2----1---|
*:-D-----D-----D----D----D----D----D---|

e:--------------------|\
b:--------------------| \
g:--------------------|  \
D:-0-0-0-33-0-0-0-33--|   x2
A:-0-0-0-33-0-0-0-33--|  /
D:-0-0-0-33-0-0-0-33--| /
*:-D-D-D-UD-U-D-D-UD--|/

e:---------------|
b:---------------|
g:---------------|
D:-3----2----1---|
A:-3-x8-2-x4-1-x4|
D:-3----2----1---|
*:-D----D----D---|