Paolo Santos - Angel Text Guitar Tab

Learn the song with the online tablature player
ANGEL
Paolo Santos

Intro

E------------
B-6--2--6--2-
G-6--3--6--3-
D-6--4--6--4-
A-4--4--4--4-
E----2-----2-

Verse

E----2--------
B-7--2--6--4--
G-6--3--6--5--
D-8--4--6--6--play 2x
A-6--4--4--6--
E----2-----4--

Chorus

E----1--2-----4-
B-6--1--2--6--4-
G-6--1--3--6--5-
D-6--3--4--6--6-
A-4--3--4--4--6-play 2x
E----1--2-----4-

Adlib:

E------------
B-6--2--6--2-
G-6--3--6--3-
D-6--4--6--4-
A-4--4--4--4-
E----2-----2-

=====()w&_17=====