Paolo Santos - Itsumo Text Guitar Tab

Learn song with the online tabulature player
Song: Itsumo
Transcribed By: Ricky Jay Lonceras

Intro,verse, churos, until end.
This is the pattern

e--------------------------------|
b--------------------------------|
g--------------------------------|
d--------------------------------|
a--------------------------------|
E--1/3--3-3--3-3--3-2-2--2-2-----|

e--------------------------------|
b--------------------------------|
g--------------------------------|
d--------------------------------|
a--------------------------------|
E--1/3--3-3--3-3--3-2-2--2-2-----|

e--------------------------------|
b--------------------------------|
g--------------------------------|
d--------------------------------|
a--------------------------------|
E--1/3--3-3--3-3--3-2-2--2-2-----|


e--------------------------------|
b--------------------------------|
g--------------------------------|
d--------------------------------|
a--------------------------------|
E--1/3--3-3--3-3--3-2-2--2-2-----|

e--------------------------------|
b--------------------------------|
g--------------------------------|
d--------------------------------|
a--------------------------------|
E--1/3--3-3--3-3--3-2-2--2-2-----|

e--------------------------------|
b--------------------------------|
g--------------------------------|
d--------------------------------|
a--------------------------------|
E--1/3--3-3--3-3--3-2-2--2-2-----|

ok that's it... enjoy???

comment is free ok,

axl_since1969@yahoo.com