Paolo Santos - Missing You Text Guitar Tab

Learn song with the online tabulature player
Title:     Missing You
Artist:    Paolo Santos
Tabbed by: Gilbert Bumanlag
Tuning:    Standard

Verse/Chorus:

E---------------|
B--3----3---3---|
G--0----0---0---|
D--0----2---4---|
A--2----3---4---|
E--3--------5---|

Refrain/Bridge:

E---------------|
B--0----3---3---|
G--0----0---0---|
D--2----2---4---|
A--2----3---4---|
E-----------5---|

That’s all !!!