Papa Roach - Anxiety Text Guitar Tab

Learn the song with the online tablature player
INTRO

E-------5---------3--------8--------3-----
B------5---------1--------5--------1------
G-----5---------2--------5--------2-------
D--------------3-----------------3--------
A--0-------------------0------------------
D-----------------------------------------

VERSE
" I feel like i wanna smack somebody..."

E------------------------------------------------------------------------
B---------------------------------5------5-5-----------------------------
G--------5---5------4----------5---------------------5--5------4---------
D-------7---7---7--5----------7--7--7---7-7---------7--7---7--5----------
A--7-7-------------------7-7-------------------3-3-----------------3-3---
D--7-7-------------------7-7-------------------3-3-----------------3-3---

------5------5-5-----                B----------------------------
---5-----------------X2    THEN...   G----------------------------X2
--7--7--7---7-7------     (verse     D----------------------------
---------------------      part 2)   A--7-7----7-7----3-3----3-3--
G-------5--/7-7---/9-----
D------7--/9-9--/10------X4
A--0-0-------------------
D------------------------

CHORUS

E-------5-5-5-5------5-5-5-5--------------------------------------
B-------5-5-5-5------5-5-5-5--------------------------------------
G-------5-5-5-5------5-5-5-5--------------------------------------
D-----------------------------------------------------------------X2
A--7-7----------7-7-------------3-3--3p0-2h3p2p0----3-3--3h2-3h2--
D--7-7----------7-7-------------3-3-----------------3-3-----------

VERSE
"My head keeps runnin away my brotha..."

E------------------------------------------------------------------------
B---------------------------------5------5-5-----------------------------
G--------5---5------4----------5---------------------5--5------4---------
D-------7---7---7--5----------7--7--7---7-7---------7--7---7--5----------
A--7-7-------------------7-7-------------------3-3-----------------3-3---
D--7-7-------------------7-7-------------------3-3-----------------3-3---

------5------5-5-----          B----------------------------
---5-----------------X2        G----------------------------X2
--7--7--7---7-7------          D----------------------------
during the second part of the verse,play
this in the backround with no distortion:

E------3------0------8---------0--
B-----1------1------5---------1---
G----2------2------5---------2----    THEN PRE-VERSE
D---------------------------------
A---------------------------------
D---------------------------------

CHORUS

BRIDGE
(same as intro)

E-------5---------3--------8--------3----
B------5---------1--------5--------1-----
G-----5---------2--------5--------2------
D--------------3-----------------3-------
A--0-------------------0-----------------
D----------------------------------------

PRE-VERSE

CHORUS

end

Antwan