Papa Roach - Last Resort Text Guitar Tab

Learn the song with the online tablature player
-|-------------------------|
-|-------------------------|
-|-------------------------|
-|-9-9--7-7--5-5--4-4--7-7-|
-|-7-7--5-5--3-3--2-2--5-5-|
-|-9-9--7-7--5-5--4-4--7-7-|

|-----------------------------------------------------------------------------------|
|-----------------------------------------------------------------------------------|
|-----------------------------------------------------------------------------------|
|-----------9--------------------9--------------------9-------------------9---------|
|-7-10-9-10---10-9-10----10-9-10---10-9-10----10-9-10---10-9-10---10-9-10---10-9-10-|
|---------------------12-------------------10-------------------9-------------------|

|-----------------------------------------------------------------------------------|
|-----------------------------------------------------------------------------------|
|-----------------------------------------------------------------------------------|
|-----------9--------------------9--------------------9-------------------9---------|
|-7-10-9-10---10-9-10----10-9-10---10-9-10----10-9-10---10-9-10---10-9-10---10-9-10-|
|---------------------12-------------------10-------------------9-------------------|

|-------------------------------------------------------------------|
|-------------------------------------------------------------------|
|-------------------------------------------------------------------|
|-----------9--------------------9--------------------9-------------|
|-7-10-9-10---10-9-10----10-9-10---10-9-10----10-9-10---10-9-10-----|
|---------------------12-------------------10-----------------------|

pm --------------------------------------------------------------

|----------------------------------------------------------------------------------|
|----------------------------------------------------------------------------------|
|----------------------------------------------------------------------------------|
|-----------9--------------------9---------------9--------------------9------------|
|---10-9-10---10-9-10--7-10-9-10---10----10-9-10---10-9-10----10-9-10--10-9-10-----|
|-9-----------------------------------12-------------------10------------------9---|

pm ----------------------------------------------------------------|

|-------------------------------------------------------------------|
|-------------------------------------------------------------------|
|-------------------------------------------------------------------|
|-----------9--------------------9--------------------9-------------|
|-7-10-9-10---10-9-10----10-9-10---10-9-10----10-9-10---10-9-10-----|
|---------------------12-------------------10-----------------------|

pm --------------------------------------------------------------

|-----------------------------------------------------------------------------------------------|
|-----------------------------------------------------------------------------------------------|
|-----------------------------------------------------------------------------------------------|
|-----------9--------------------9---------------9--------------------9-----------9999-12121212-|
|---10-9-10---10-9-10--7-10-9-10---10----10-9-10---10-9-10----10-9-10--10-9-10----9999-12121212-|
|-9-----------------------------------12-------------------10------------------12-9999-12121212-|

pm ----------------------------------------------------------------|

|-------------------------------------------------------------------------------------|
|-------------------------------------------------------------------------------------|
|------------------------------------------------11111111-12121212-14141414-1111111---|
|-14-14-14-14-14-14-14-0-10-10-10-10-10-10-10-0--x-x-x-x--x-x-x-x--x-x-x-x--x-x-x-x---|
|-14-14-14-14-14-14-14-0-10-10-10-10-10-10-10-0--9-9-9-9--10101010-12121212-9-9-9-9---|
|-14-14-14-14-14-14-14-0-10-10-10-10-10-10-10-0--0-0-0-0--0-0-0-0--0-0-0-0--0-0-0-0---|

|-------------------------------------------------------------------------------------|
|-------------------------------------------------------------------------------------|
|------------------------------------------------11111111-12121212-14141414-1111111---|
|-14-14-14-14-14-14-14-0-10-10-10-10-10-10-10-0--x-x-x-x--x-x-x-x--x-x-x-x--x-x-x-x---|
|-14-14-14-14-14-14-14-0-10-10-10-10-10-10-10-0--9-9-9-9--10101010-12121212-9-9-9-9---|
|-14-14-14-14-14-14-14-0-10-10-10-10-10-10-10-0--0-0-0-0--0-0-0-0--0-0-0-0--0-0-0-0---|

|-----------------------------------------------------------------------------------|
|-----------------------------------------------------------------------------------|
|-----------------------------------------------------------------------------------|
|-----------9--------------------9--------------------9-------------------9---------|
|-7-10-9-10---10-9-10----10-9-10---10-9-10----10-9-10---10-9-10---10-9-10---10-9-10-|
|---------------------12-------------------10-------------------9-------------------|

|-------------------------------------------------------------------|
|-------------------------------------------------------------------|
|-------------------------------------------------------------------|
|-----------9--------------------9--------------------9-------------|
|-7-10-9-10---10-9-10----10-9-10---10-9-10----10-9-10---10-9-10-----|
|---------------------12-------------------10-----------------------|

pm --------------------------------------------------------------

|----------------------------------------------------------------------------------|
|----------------------------------------------------------------------------------|
|----------------------------------------------------------------------------------|
|-----------9--------------------9---------------9--------------------9------------|
|---10-9-10---10-9-10--7-10-9-10---10----10-9-10---10-9-10----10-9-10--10-9-10-----|
|-9-----------------------------------12-------------------10------------------12--|

pm ----------------------------------------------------------------|

|-------------------------------------------------------------------|
|-------------------------------------------------------------------|
|-------------------------------------------------------------------|
|-----------9--------------------9--------------------9-------------|
|-7-10-9-10---10-9-10----10-9-10---10-9-10----10-9-10---10-9-10-----|
|---------------------12-------------------10-----------------------|

pm --------------------------------------------------------------

|-----------------------------------------------------------------------------------------------|
|-----------------------------------------------------------------------------------------------|
|-----------------------------------------------------------------------------------------------|
|-----------9--------------------9---------------9--------------------9-----------9999-12121212-|
|---10-9-10---10-9-10--7-10-9-10---10----10-9-10---10-9-10----10-9-10--10-9-10----9999-12121212-|
|-9-----------------------------------12-------------------10------------------12-9999-12121212-|

 pm ----------------------------------------------------------------|

|-------------------------------------------------------------------------------------|
|-------------------------------------------------------------------------------------|
|------------------------------------------------11111111-12121212-14141414-1111111---|
|-14-14-14-14-14-14-14-0-10-10-10-10-10-10-10-0--x-x-x-x--x-x-x-x--x-x-x-x--x-x-x-x---|
|-14-14-14-14-14-14-14-0-10-10-10-10-10-10-10-0--9-9-9-9--10101010-12121212-9-9-9-9---|
|-14-14-14-14-14-14-14-0-10-10-10-10-10-10-10-0--0-0-0-0--0-0-0-0--0-0-0-0--0-0-0-0---|

|-------------------------------------------------------------------------------------|
|-------------------------------------------------------------------------------------|
|------------------------------------------------11111111-12121212-14141414-1111111---|
|-14-14-14-14-14-14-14-0-10-10-10-10-10-10-10-0--x-x-x-x--x-x-x-x--x-x-x-x--x-x-x-x---|
|-14-14-14-14-14-14-14-0-10-10-10-10-10-10-10-0--9-9-9-9--10101010-12121212-9-9-9-9---|
|-14-14-14-14-14-14-14-0-10-10-10-10-10-10-10-0--0-0-0-0--0-0-0-0--0-0-0-0--0-0-0-0---|

|--------------------------------------------------------------------------|
|--------------------------------------------------------------------------|
|--------------------------------------------------------------------------|
|-14-14-14-14-14-14-14-0-10-10-10-10-10-10-10-5-5-5-5-5-5-5-5-9-9-9-9-9-9-9|
|-14-14-14-14-14-14-14-0-10-10-10-10-10-10-10-5-5-5-5-5-5-5-5-9-9-9-9-9-9-9|
|-14-14-14-14-14-14-14-0-10-10-10-10-10-10-10-5-5-5-5-5-5-5-5-9-9-9-9-9-9-9|

|--------------------------------------------------------------------------|
|--------------------------------------------------------------------------|
|--------------------------------------------------------------------------|
|-14-14-14-14-14-14-14-0-10-10-10-10-10-10-10-5-5-5-5-5-5-5-5-9-9-9-9-9-9-9|
|-14-14-14-14-14-14-14-0-10-10-10-10-10-10-10-5-5-5-5-5-5-5-5-9-9-9-9-9-9-9|
|-14-14-14-14-14-14-14-0-10-10-10-10-10-10-10-5-5-5-5-5-5-5-5-9-9-9-9-9-9-9|

|--------------------------------------------------------------------------------|
|--------------------------------------------------------------------------------|
|-------------------7-7-7-7-7-7-7-7---12-12-12-12-12-12-12-12—-11111111111111111-|
|-9-9-9-9-9-9-9-9---5-5-5-5-5-5-5-5---10-10-10-10-10-10-10-10---9-9-9-9-9-9-9-9--|
|-7-7-7-7-7-7-7-7---5-5-5-5-5-5-5-5---10-10-10-10-10-10-10-10---9-9-9-9-9-9-9-9--|
|-9-9-9-9-9-9-9-9---5-5-5-5-5-5-5-5---10-10-10-10-10-10-10-10---9-9-9-9-9-9-9-9--|

|--------------------------------------------------------------------------------|
|--------------------------------------------------------------------------------|
|-------------------7-7-7-7-7-7-7-7---12-12-12-12-12-12-12-12—-11111111111111111-|
|-9-9-9-9-9-9-9-9---5-5-5-5-5-5-5-5---10-10-10-10-10-10-10-10---9-9-9-9-9-9-9-9--|
|-7-7-7-7-7-7-7-7---5-5-5-5-5-5-5-5---10-10-10-10-10-10-10-10---9-9-9-9-9-9-9-9--|
|-9-9-9-9-9-9-9-9---5-5-5-5-5-5-5-5---10-10-10-10-10-10-10-10---9-9-9-9-9-9-9-9--|

-|-------------------------|
-|-------------------------|
-|-------------------------|
-|-9-9--7-7--5-5--4-4--7-7-|
-|-7-7--5-5--3-3--2-2--5-5-|
-|-9-9--7-7--5-5--4-4--7-7-|

-|-------------------------|
-|-------------------------|
-|-------------------------|
-|-9-9--7-7--5-5--4-4--7-7-|
-|-7-7--5-5--3-3--2-2--5-5-|
-|-9-9--7-7--5-5--4-4--7-7-|

-|-------------------------|
-|-------------------------|
-|-------------------------|
-|-9-9--7-7--5-5--4-4--7-7-|
-|-7-7--5-5--3-3--2-2--5-5-|
-|-9-9--7-7--5-5--4-4--7-7-|

-|-------------------------|
-|-------------------------|
-|-------------------------|
-|-9-9--7-7--5-5--4-4--7-7-|
-|-7-7--5-5--3-3--2-2--5-5-|
-|-9-9--7-7--5-5--4-4--7-7-|

|-------------------------------------------------------------------|
|-------------------------------------------------------------------|
|-------------------------------------------------------------------|
|-----------9--------------------9--------------------9-------------|
|-7-10-9-10---10-9-10----10-9-10---10-9-10----10-9-10---10-9-10-----|
|---------------------12-------------------10-----------------------|

|-----------------------------------------------------------------------------------------------|
|-----------------------------------------------------------------------------------------------|
|-----------------------------------------------------------------------------------------------|
|-----------9--------------------9---------------9--------------------9-----------9999-12121212-|
|---10-9-10---10-9-10--7-10-9-10---10----10-9-10---10-9-10----10-9-10--10-9-10----9999-12121212-|
|-9-----------------------------------12-------------------10------------------12-9999-12121212-|

|-------------------------------------------------------------------------------------|
|-------------------------------------------------------------------------------------|
|------------------------------------------------11111111-12121212-14141414-1111111---|
|-14-14-14-14-14-14-14-0-10-10-10-10-10-10-10-0--x-x-x-x--x-x-x-x--x-x-x-x--x-x-x-x---|
|-14-14-14-14-14-14-14-0-10-10-10-10-10-10-10-0--9-9-9-9--10101010-12121212-9-9-9-9---|
|-14-14-14-14-14-14-14-0-10-10-10-10-10-10-10-0--0-0-0-0--0-0-0-0--0-0-0-0--0-0-0-0---|

|-------------------------------------------------------------------------------------|
|-------------------------------------------------------------------------------------|
|------------------------------------------------11111111-12121212-14141414-1111111---|
|-14-14-14-14-14-14-14-0-10-10-10-10-10-10-10-0--x-x-x-x--x-x-x-x--x-x-x-x--x-x-x-x---|
|-14-14-14-14-14-14-14-0-10-10-10-10-10-10-10-0--9-9-9-9--10101010-12121212-9-9-9-9---|
|-14-14-14-14-14-14-14-0-10-10-10-10-10-10-10-0--0-0-0-0--0-0-0-0--0-0-0-0--0-0-0-0---|

|--------------------------------------------------------------------------|
|--------------------------------------------------------------------------|
|--------------------------------------------------------------------------|
|-14-14-14-14-14-14-14-0-10-10-10-10-10-10-10-5-5-5-5-5-5-5-5-9-9-9-9-9-9-9|
|-14-14-14-14-14-14-14-0-10-10-10-10-10-10-10-5-5-5-5-5-5-5-5-9-9-9-9-9-9-9|
|-14-14-14-14-14-14-14-0-10-10-10-10-10-10-10-5-5-5-5-5-5-5-5-9-9-9-9-9-9-9|

|--------------------------------------------------------------------------|
|--------------------------------------------------------------------------|
|--------------------------------------------------------------------------|
|-14-14-14-14-14-14-14-0-10-10-10-10-10-10-10-5-5-5-5-5-5-5-5-9-9-9-9-9-9-9|
|-14-14-14-14-14-14-14-0-10-10-10-10-10-10-10-5-5-5-5-5-5-5-5-9-9-9-9-9-9-9|
|-14-14-14-14-14-14-14-0-10-10-10-10-10-10-10-5-5-5-5-5-5-5-5-9-9-9-9-9-9-9|

|----------------------------------------------------------|
|----------------------------------------------------------|
|--44444444/1212121212121212---11----12-----14----11-------|
|--22222222/1010101010101010---x-----x------x-----x--------|
|--22222222/1010101010101010---9-----10-----12----9--------|
|--22222222/1010101010101010------0-0---0-0---0-0----------|

|----------------------------------------------------------|
|----------------------------------------------------------|
|--44444444/1212121212121212---11----12-----14----12/14\12-|
|--22222222/1010101010101010---x-----x------x-----x--x--x--|
|--22222222/1010101010101010---9-----10-----12----10/12\10-|
|--22222222/1010101010101010------0-0---0-0---0-0----------|

|----------------------------------------------------------|
|----------------------------------------------------------|
|--44444444/1212121212121212-------------------------------|
|--22222222/1010101010101010-------------------------------|
|--22222222/1010101010101010-------------------------------|
|--22222222/1010101010101010---0-0-0-0-0-0-0-0-------------|
                              p.m...............

|------------------------------------------------------------------|
|------------------------------------------------------------------|
|--44444444/1212121212121212---11111111/12121212/14141414\11111111-|
|--22222222/1010101010101010---x-x-x-x--x-x-x-x--x-x-x-x--x-x-x-x--|
|--22222222/1010101010101010---9-9-9-9-/10101010/12121212\9-9-9-9--|
|--22222222/1010101010101010---------------------------------------|

|------------------------------------------------------------------|
|------------------------------------------------------------------|
|--44444444/1212121212121212---11111111/12121212/14141414\11111111-|
|--22222222/1010101010101010---x-x-x-x--x-x-x-x--x-x-x-x--x-x-x-x--|
|--22222222/1010101010101010---9-9-9-9-/10101010/12121212\9-9-9-9--|
|--22222222/1010101010101010---------------------------------------|

|----------------------------------|
|----------------------------------|
|----------------------------------|
|--12-12-12-12-12-12-12-12-12-12\2-|
|--12-12-12-12-12-12-12-12-12-12\2-|
|--12-12-12-12-12-12-12-12-12-12\2-|