Paper Route - City Trucks Text Guitar Tab

Learn the song with the online tablature player
                             City Trucks - Paper Route

This is what I got. Listening to the song is difficult, the singing almost drowns out
the guitar; but it is also played slightly mellow. I will add the end of the chorus
shortly. Pardon the small spacing in the tab, but I wanted to try and illustrate that it
is not played all that slow.

                       Intro/Verse
 |This is played 3 times|    |ending with this on the 4th|
e|---------------------------------2---2---2---2---------|
B|3------2---0-----0-------------------------------------|
G|---2----2-----2---2----------------2---2---2---2-------|
D|---------------------------------0--0----0--0----------|
A|2-----0----3----3--------------------------------------|
E|-------------------------------------------------------|

For the better half of the song you can keep your middle finger on the G(2nd fret)
throughout the verse; as well as going into the chorus. Makes the transitions smoother for me.

                             Chorus

e|2---2---2---2---0--0---0---0---------------------------|
B|-------------------------------3--3-3--3-3--3--3--3----|
G|--2--2----2--2---2---2--2---2---2--2-2--2-2--2--2--2---|
D|0--0----0--0----0-0----0--0----------------------------|
A|-------------------------------2-2--0-0--------0-0-----|
E|-----------------------------------------3-3-----------|

Feedback Welcome! Please!