Parachute Band - Shout It Out Text Guitar Tab

Learn the song with the online tablature player
                             Shout It Out-Parachute Band

Intro
Distortion with Delay
e|---------------------------------------------------------------------------|
B|-22-15-20----------------------19-15----13p12h13---------------------------|
G|----------14p12h14-------------------12----------12------------------------|
D|---------------------------------------------------------------------------|
A|---------------------------------------------------------------------------|
E|---------------------------------------------------------------------------|

Verse
e|---------------------------------------------------------------------------|
B|---------------------------------------------------------------------------|
G|---------------------------------------------------------------------------|
D|-5------------7------------9-----------------------------------------------|
A|-5------------7------------9-----------------------------------------------|
E|-3------------5------------7-----------------------------------------------|

Chorus
e|---------------------------------------------------------------------------|
B|---------------------------------------------------------------------------|
G|---------------------------------------------------------------------------|
D|-12--------10---------5----------------------------------------------------|
A|-12--------10---------5----------------------------------------------------|
E|-10---------8---------3----------------------------------------------------|
Shout it out shout it out.....

2nd Intro again leaving off the end bit
e|---------------------------------------------------------------------------|
B|-22-15-20------------------19-15-------------------------------------------|
G|----------14p12h14---------------12----------------------------------------|
D|---------------------------------------------------------------------------|
A|---------------------------------------------------------------------------|
E|---------------------------------------------------------------------------|

Quiet thing
e|---------------------------------------------------------------------------|
B|---------------------------------------------------------------------------|
G|---------------------------------------------------------------------------|
D|-12----------5-------------------------------------------------------------|
A|-12----------5--------repeats this a few times then back to the chorus ----|
E|-10----------3-------------------------------------------------------------|
Glory to the lord on high.....

Order:
Intro
Verse x3
Chorus
2nd Intro
Verse x3
Chorus
Intro
Quiet Thing
Chorus

| /  slide up
| \  slide down
| h  hammer-on
| p  pull-off
| ~  vibrato
| +  harmonic
| x  Mute note