Paradise Lost - Another Day Text Guitar Tab

Learn the song with the online tablature player
By Paradise Lost
From the album "One Second"

Legend:
  h- hammer        /- slide up
  p- pull off      \-slide down
  b- bend          pm- palm mute
  x- mute strings  harm- natural harmonic

Tune down 1 step DGCFAD

This isn't finished yet but it should be a good start...

Intro
Piano arr. for guitar
D[-------------------------------------|----------------------------------------]
A[-------------------------------------|----------------------------------------]
F[-----9----9------9-----9-9-9--11--8--|-----13--11-11--9-9---9-9-9--9-9-11-----]
C[--11---11-----11---11----------------|--11--------------------------------11--]
G[-------------------------------------|----------------------------------------]
D[-------------------------------------|----------------------------------------]

Verse Riff  Clean guitar w/ chorus
Don't follow this exactly, it's just a rough example, improvise.

                                      3x
D[----4--4--4-4--4-----6-6---7--7--7---]--2--2-2-----2--2---4--4--4-4---|
A[----4--4--4-4--4-----6-6---7--7--7---]--2--2-2-----2--2---4--4--4-4---|
F[-------5-----------------------------]--------------------------------|
C[--6----6--6-6--------------9--9--9---]--4--4-4--4--4------6--6--6-----|
G[--6----6-----------8-------9---------]--4-------4---------6-----------|
D[--4----4-----------6-------7---------]--2-------2---------4-----------|