Paradise Lost - Blood Of Another Text Guitar Tab

Learn the song with the online tablature player
Blood of Another

By Paradise Lost
From the album "One Second"

Legend:
  h- hammer        /- slide up
  p- pull off      \-slide down
  b- bend          pm- palm mute
  x- mute strings  harm- natural harmonic

Tune down 1 step DGCFAD

Intro
Keyboard arr. for guitar (This is just an idea, it's hard to tell if I am right or not)

Rhy Fig 1.-------------|
D[-----5------5------5--]
A[-------8------8-------]
F[--7------7------7-----]
C[----------------------]
G[----------------------]
D[----------------------]

         Rhy Fig 2.--------------------------------------------------------->|
D|------|----------------------------------|----------------------------------|
A|------|----------------------------------|----------------------------------|
F|--x\--|--7----3-----------------------5--|--7----3--------------------------|
C|--x\--|--7----3--5-5-----3-----2-3----5--|--7----3--5-5----3-----2-3-5-2-7--|
G|--x\--|--5----1--5-5-----3-----2-3----3--|--5----1--5-5----3-----2-3-3-0-5--|
D|------|----------3-3-----1-----0-1-------|----------3-3----1-----0-1--------|

Rhy Fig 3.
  Pm--------------------------------------------------------------------->|
D[-----------------][-----------------][-----------------]-----------------|
A[-----------------][-----------------][-----------------]-----------------|
F[-7-7-7-7-7-7-7-7-][-5-5-5-5-5-5-5-5-][-3-3-3-3-3-3-3-3-]-2-2-2-2-2-2-2-2-|
C[-7-7-7-7-7-7-7-7-][-5-5-5-5-5-5-5-5-][-3-3-3-3-3-3-3-3-]-2-2-2-2-2-2-2-2-|
G[-5-5-5-5-5-5-5-5-][-3-3-3-3-3-3-3-3-][-1-1-1-1-1-1-1-1-]-0-0-0-0-0-0-0-0-|
D[-----------------][-----------------][-----------------]-----------------|

           End Rhy Fig 3.
  Pm------------->|
D|------------------
A|------------------
F|------------------
C|-5-5-5-5-5-5-5-5--
G|-5-5-5-5-5-5-5-5--
D|-3-3-3-3-3-3-3-3--

Rhy Fig 4.
  Pm---------------------------------------------------------------------->|
D[-----------------][-----------------][-----------------]------------------
A[-----------------][-----------------][-----------------]------------------
F[-7-7-7-7-7-7-7-7-][-5-5-5-5-5-5-5-5-][-3-3-3-3-3-3-3-3-]-2-2-2-2-2-2-2-2--
G[-7-7-7-7-7-7-7-7-][-5-5-5-5-5-5-5-5-][-3-3-3-3-3-3-3-3-]-2-2-2-2-2-2-2-2--
C[-5-5-5-5-5-5-5-5-][-3-3-3-3-3-3-3-3-][-1-1-1-1-1-1-1-1-]-0-0-0-0-0-0-0-0--
D[-----------------][-----------------][-----------------]------------------

                                                              End Rhy Fig 4.
Pm------------------------------------------------------Gradual Release
D|-----------------|-----------------|-----------------|-----------------|
A|-----------------|-----------------|-----------------|-----------------|
F|-----------------|-----------------|-----------------|-----------------|
C|-5-5-5-5-5-5-5-5-|-3-3-3-3-3-3-3-3-|-2-2-2-2-2-2-2-2-|-7-7-7-7-7-7-7-7-|
G|-5-5-5-5-5-5-5-5-|-3-3-3-3-3-3-3-3-|-0-0-0-0-0-0-0-0-|-7-7-7-7-7-7-7-7-|
D|-3-3-3-3-3-3-3-3-|-1-1-1-1-1-1-1-1-|-0-0-0-0-0-0-0-0-|-5-5-5-5-5-5-5-5-|

Rhy Fig 5.
  Pm---------------------------------------------------------------------->|
D[-----------------][-----------------][-----------------]------------------
A[-----------------][-----------------][-----------------]------------------
F[-7-7-7-7-7-7-7-7-][-5-5-5-5-5-5-5-5-][-3-3-3-3-3-3-3-3-]-2-2-2-2-2-2-2-2--
G[-7-7-7-7-7-7-7-7-][-5-5-5-5-5-5-5-5-][-3-3-3-3-3-3-3-3-]-2-2-2-2-2-2-2-2--
C[-5-5-5-5-5-5-5-5-][-3-3-3-3-3-3-3-3-][-1-1-1-1-1-1-1-1-]-0-0-0-0-0-0-0-0--
D[-----------------][-----------------][-----------------]------------------

                       End Rhy Fig 5.
Pm-------------------Gradual Release
D|-----------------|-----------------|
A|-----------------|-----------------|
F|-----------------|-----------------|
C|-5-5-5-5-5-5-5-5-|-7-7-7-7-7-7-7-7-|
G|-5-5-5-5-5-5-5-5-|-7-7-7-7-7-7-7-7-|
D|-3-3-3-3-3-3-3-3-|-5-5-5-5-5-5-5-5-|

[Rhy Fig 1. (8x) Fade in]
[Rhy Fig 2. (2x) & Fig 1. Throughout]
You'll see the blood
Blood of another
You'll see the blood
As we roll in it together
You'll see the blood
Blood of another
You'll see the blood
As we roll in it together tonight

[Rhy Fig 3. (1x) then Rhy Fig 4. (1x)]
What unruly life is like?
What is fabled wisdom like?
This indulgent grace is
Spinning round and leaving all behind
Knowledge limits you besides
Claming you're so sure by vibes
In this frozen climate
The temperature should bring you down to rights
Should bring you down to rights

[Rhy Fig 2. (2x) & Fig 1. Throughout]
You'll see the blood
Blood of another
You'll see the blood
As we roll in it together
You'll see the blood
Blood of another
You'll see the blood
As we roll in it together tonight

[Rhy Fig 3. (1x) then Rhy Fig 5. (1x)]
Beauty, purity inside
Twisted madness filth and vice
Death is not selective
The darker shroud will fall on all despite
Rrecklessness, the fault in mind
Anger, laughter can't provide
Try to turn a blind eye
The wasting pain one trip you cannot buy

[Rhy Fig 2. (2x) & Fig 1. Throughout]
You'll see the blood
Blood of another
You'll see the blood
As we roll in it together
You'll see the blood
Blood of another
You'll see the blood
As we roll in it together tonight

[Break w/Rhy 1. and some other stuff...]
[Rhy Fig 2. (4x) & Fig 1. Throughout]
You'll see the blood
Blood of another
You'll see the blood
As we roll in it together
You'll see the blood
Blood of another
You'll see the blood
As we roll in it together
You'll see the blood
Blood of another
You'll see the blood
As we roll in it together
You'll see the blood
Blood of another
You'll see the blood
As we roll in it together tonight