Paradise Lost - Small Town Boy Text Guitar Tab

Learn the song with the online tablature player
Band/Song: Paradise Lost - Small Town Boy
Album: B-Sides & Rarities

Intro, Chorus, Outro

Rhytm Guitar
     E  E  E  E  E  E  E  E     E  E  E  E  E  E  E  E
D||--------------------------|--------------------------|
A||--------------------------|--------------------------|
F||--------------------------|--------------------------|
C||--7--7--7--7--7--7--7--7--|--5--5--5--5--5--5--5--5--|
G||--5--5--5--5--5--5--5--5--|--3--3--3--3--3--3--3--3--|
D||--------------------------|--------------------------|

  E  E  E  E  E  E  E  E     E  E  E  E  E  E  E  E
--------------------------|--------------------------|
--------------------------|--------------------------|
--------------------------|--------------------------|
--------------------------|--------------------------|
--5--5--5--5--5--5--5--5--|--3--3--3--3--3--3--2--2--|
--3--3--3--3--3--3--3--3--|--1--1--1--1--1--1--0--0--|

Solo Guitar
  E  E  Q     E  Q     E      E  E  Q     E  Q     E
---------------------------|---------------------------|
--------6~-------6~----6~--|--L-----5~-------5~----5~--|
-----7--------7------------|-----7--------7------------|
---------------------------|---------------------------|
---------------------------|---------------------------|
---------------------------|---------------------------|

  E  E  Q     E  Q     E      E  E  Q     E  Q     E
---------------------------|---------------------------|
--L-----8~-------8~----8~--|--L-----6~-------6~----6~--|
-----7--------7------------|-----7--------7------------|
---------------------------|---------------------------|
---------------------------|---------------------------|
---------------------------|---------------------------|

Cry boy, cry boy, cry - interlude

Rhytm Guitar
  PM PM PM PM PM PM PM PM    PM PM PM PM PM PM PM PM
  E  E  E  E  E  E  E  E     E  E  E  E  E  E  E  E
--------------------------|--------------------------|
--------------------------|--------------------------|
--------------------------|--------------------------|
--7--7--7--7--7--7--7--7--|--------------------------|
--5--5--5--5--5--5--5--5--|--3--3--3--3--3--3--3--3--|
--------------------------|--1--1--1--1--1--1--1--1--|

  PM PM PM PM PM PM PM PM    PM PM PM PM PM PM PM PM
  E  E  E  E  E  E  E  E     E  E  E  E  E  E  E  E
--------------------------|--------------------------|
--------------------------|--------------------------|
--------------------------|--------------------------|
--------------------------|--3--3--3--3--2--3--3--3--|
--5--5--5--5--5--5--5--5--|--1--1--1--1--0--1--1--1--|
--3--3--3--3--3--3--3--3--|--------------------------|

Solo Guitar
  E  E   E   E   E   S  S  Q        E  E   E   E   E   S  S  Q
---------------------------------|---------------------------------|
--L--------------6~--8~-6~-8~----|--L--------------6~--8~-6~-8~----|
-----7~--5~--7~------------------|-----7~--5~--7~------------------|
---------------------------------|---------------------------------|
---------------------------------|---------------------------------|
---------------------------------|---------------------------------|

  E  E   E   E   E   S  S  Q        E  E   E   E   E   S  S  Q
---------------------------------|---------------------------------|
--L--------------6~--8~-6~-8~----|--L--------------6~--8~-6~-8~----|
-----7~--5~--7~------------------|-----7~--5~--7~------------------|
---------------------------------|---------------------------------|
---------------------------------|---------------------------------|
---------------------------------|---------------------------------|

Last 8 bars 0f interlude

Rhytm Guitar
  E  E  E  E  E  E  E  E     E  E  E  E  E  E  E  E
--------------------------|--------------------------|
--------------------------|--------------------------|
--------------------------|--------------------------|
--7--7--7--7--7--7--7--7--|--5--5--5--5--5--5--5--5--|
--5--5--5--5--5--5--5--5--|--3--3--3--3--3--3--3--3--|
--------------------------|--------------------------|

  E  E  E  E  E  E  E  E     E  E  E  E  E  E  E  E
--------------------------|--------------------------|
--------------------------|--------------------------|
--------------------------|--------------------------|
--------------------------|--------------------------|
--5--5--5--5--5--5--5--5--|--3--3--3--3--3--3--2--2--|
--3--3--3--3--3--3--3--3--|--1--1--1--1--1--1--0--0--|

  E  E  E  E  E  E  E  E     E  E  E  E  E  E  E  E
--------------------------|--------------------------|
--------------------------|--------------------------|
--------------------------|--------------------------|
--7--7--7--7--7--7--7--7--|--5--5--5--5--5--5--5--5--|
--5--5--5--5--5--5--5--5--|--3--3--3--3--3--3--3--3--|
--------------------------|--------------------------|

                                          PM PM
  E  E  E  E  E  E  E  E     E  E  Q.     S  S  Q
--------------------------|---------------------------||
--------------------------|---------------------------||
--------------------------|---------------------------||
--------------------------|---------------------------||
--5--5--5--5--5--5--5--5--|--3------------3--3--3\----||
--3--3--3--3--3--3--3--3--|--1------------1--1--1\----||

Duration Legend

Q - quarter
E - 8th
S - 16th
. - note dotted

L - tied note
PM - palm mute
\ -  slide into from above or out of downwards
~ - vibrato