Paramita - Tala Text Guitar Tab

Learn the song with the online tablature player
Intro

e |---------------------------------------|
b |---------------------------------------|
g |----1----1---1\2----2---2--------------|
d |---------------------------------------|   2x
a |----0--0----0----0----0----------------|
e |---------------------------------------|

e |---------------------------------------|
b |---0-----------------------------------|
g |------1-1---2----2----2----------------|
d |---------------------------------------|   2x
a |---------------------------------------|
e |---2--------2--2----2----2-------------|

Guitar 1
      E     Ab     E
e |---x--|---x--|--x-------|
b |---x--|---x--|--x-------|
g |---9--|--13--|--9-------|
d |---x--|---x--|--x-------|
a |---7--|--11--|--7-------|
e |---x--|---x--|--x-------|