Paramore - Decoy Live Text Guitar Tab

Learn the song with the online tablature player
Paramore - Decoy (The Final Riot DVD)
Intro
GtrI @0:07
|------------------------|---------------------------------|
|------------------------|---------------------------------|
|-4--1111-66--66-88-66---|---4--1111-66--66-88-66----------|
|-6--9-9--44--44-66-44---|---6--9-9--44--44-66-44----------|
|-6--9-9--44--44-66-44---|---6--9-9--44--44-66-44----------|
|-6--9-9--44--44-66-44---|---6--9-9--44--44-66-44----------|

GtrII
@0:00
|------------------------------|------------------------------|
|------------------------------|------------------------------|
|-8--1111-1111--1111-1313-1111-|-8--1111-1111--1111-1313-1111-|
|-6--9-9-----------------------|-6--9-9-----------------------|2x
|-6--9-9--9-9---9-9--1111-9-9--|-6--9-9--9-9---9-9--1111-9-9--|
|-6--9-9-----------------------|-6--9-9-----------------------|

Verse
GtrI
|-------11~---11~-------9~----9~----|
|-----9~----9~-------9~-----9~------|
|--11~------------11~---------------|
|-----------------------------------|4x
|-----------------------------------|
|-----------------------------------|
GtrII
|----------------|------9---------|----------------|----------------|
|-0--7~--0-0-0~--|-0-7-----0-0-0~-|-0-0-7~--0-0-0~-|-0--7~--0-0-0~--|
|-8--8~--3-4-1~--|-8-8-8---3-4-1~-|-8-9-8~--3-4-1~-|-8--8~--3-4-1~--|
|----------------|----------------|----------------|----------------|
|----------------|----------------|----------------|----------------|
|----------------|----------------|----------------|----------------|

Refrain

|----0~---0~--0~----0~-----|
|-0--7~---0~--0~----0~-----|
|-8--8~---3~--4~----1~-----|
|--------------------------|
|--------------------------|
|--------------------------|

Chorus
Gtrs
|-----------------------------------------------------------------|
|-----------------------------------------------------------------|
|-8-8-8-8-8-8-8-8-8-8-8-8-8-8-8-8-4-4-4-4-4-4-4-4-6-6-6-6-6-6-6-6-|
|-6-6-6-6-6-6-6-6-6-6-6-6-6-6-6-6-2-2-2-2-2-2-2-2-4-4-4-4-4-4-4-4-|2x
|-6-6-6-6-6-6-6-6-6-6-6-6-6-6-6-6-2-2-2-2-2-2-2-2-4-4-4-4-4-4-4-4-|
|-6-6-6-6-6-6-6-6-6-6-6-6-6-6-6-6-2-2-2-2-2-2-2-2-4-4-4-4-4-4-4-4-|

GtrI
|-----------------------------|----------------------------|
|-----------------------------|----------------------------|
|-xxxx-4--1111-66--66-88-66---|---4--1111-66--66-88-66-----|
|-xxxx-6--9-9--44--44-66-44---|---6--9-9--44--44-66-44-----|2x
|-xxxx-6--9-9--44--44-66-44---|---6--9-9--44--44-66-44-----|
|-xxxx-6--9-9--44--44-66-44---|---6--9-9--44--44-66-44-----|

|------------------------------|------------------------------|
|------------------------------|------------------------------|
|-8--1111-1111--1111-1313-1111-|-8--1111-1111--1111-1313-1111-|
|-6--9-9-----------------------|-6--9-9-----------------------|
|-6--9-9--9-9---9-9--1111-9-9--|-6--9-9--9-9---9-9--1111-9-9--|
|-6--9-9-----------------------|-6--9-9-----------------------|

Bridge
|-11-----11------11--------11-----11------11-------|
|---12-----12----------------12-----12-------------|
|------9------9------9-----------------9-----------|
|--------------------------------------------------|
|--------------------------------------------------|
|--------------------------------------------------|

|-----7------7---7--7-6----------------|
|---7------7---7--------7--------------|
|-8------8----------------6------------|
|--------------------------------------|
|--------------------------------------|
|--------------------------------------|

|-11-----11------11--------11-----11------11-------|
|---12-----12----------------12-----12-------------|
|------9------9------9-----------------9-----------|
|--------------------------------------------------|
|--------------------------------------------------|
|--------------------------------------------------|

|-----7------7---7---6~----------------|
|---7------7---7-----7~----------------|
|-8------8-----------6~----------------|
|--------------------------------------|
|--------------------------------------|
|--------------------------------------|

Do Chorus

Outro
GtrI
|------------------------|---------------------------------|
|------------------------|---------------------------------|
|-4--1111-66--66-88-66---|---4--1111-66--66-88-66----------|
|-6--9-9--44--44-66-44---|---6--9-9--44--44-66-44----------|2x
|-6--9-9--44--44-66-44---|---6--9-9--44--44-66-44----------|
|-6--9-9--44--44-66-44---|---6--9-9--44--44-66-44----------|

GtrII
|------------------------|---------------------------------|
|------------------------|---------------------------------|
|------------------------|---------------------------------|
|-6~---------------------|-6~------------------------------|
|-6~---------------------|-6~------------------------------|
|-6~---------------------|-6~------------------------------|

GtrI
|------------------------|---------------------------------|
|------------------------|---------------------------------|
|-4--1111-66--66-88-66---|---4--1111-66--66-88-66----------|
|-6--9-9--44--44-66-44---|---6--9-9--44--44-66-44----------|2x
|-6--9-9--44--44-66-44---|---6--9-9--44--44-66-44----------|
|-6--9-9--44--44-66-44---|---6--9-9--44--44-66-44----------|

GtrII
|----------------------------------------------------------|
|----------------------------------------------------------|
|-11111111111111111111111111--1111111111111111111111111111-|
|----------------------------------------------------------|2x
|-9-9-9-9-9-9-9-9-9-9-9-9-9---9-9-9-9-9-9-9-9-9-9-9-9-9-9--|
|----------------------------------------------------------|

GtrI
end with dropd E Chord
GtrII
|----------------------------------------------------------|
|----------------------------------------------------------|
|-11~------9~-------8~-------------4~----------------------|
|---------------------------------2~-----------------------|
|-9~-------7~-------6~-----------2~------------------------|
|-------------------------------2~-------------------------|